a b c d e f g h i j k l m n o p q r s t u v w x y z 0-9

Vine Hasta Aqui

Los Piojos

			
Intro, intermedios y final:
G----------------------  G--------------------
D----------------------  D--------------------
A-77--------456--------X3A-33333333-5555555---
E----3345-5------------  E--------------------
  Em    A                  C        D

Verso:
G---------------------------------
D--------------------1-2-4-4-2-1--
A----2-3-5-5-3-2---2------------2-
E--3------------3-----------------
   G               B

Estribo:
G--------------------------------------
D--------------------------------------
A-333333333333-------------------------
E-----------------555555555555---------
  C               A

G--------------------------------------
D--------------------------------------
A-----------------222222222222---------
E-333333333333-------------------------
  G               B

Solo de guitarra:

G-----------------------------------
D-----------------------------------
A-----------------------------------
E-333333333333----111111111111------
  G               F

G----------------------------------
D----------------------------------
A-777777777777----333333-----------
E-----------------------555555-----
  Em              C     A

Bueno eso es todo , cualquier cosa , duda , saludo o
insulto, manden un mail.
VAMOS LOS PIOJOS!/

Fuente original ATAME [www.atame.org]
Colaborador original: matias [alarnedo@hotmail.com]

Fuente: tusacordes.com