a b c d e f g h i j k l m n o p q r s t u v w x y z 0-9

Verano Del 92

Los Piojos

			
Bueno...es mi primer tema, asi q no esperen lo mejor...

Verano del 92---es relativamente facil...

 ----------------------------------------------------------------
 ----------------------------------------------------------------
 --4--2--4--2--4--2----2--0--2--0--2--0---2--0--2--0--2--0-------
 ----------------------------------------------------------------
 ----------------------------------------------------------------
 ----------------------------------------------------------------

 ----------------------------------------------------------------
 ----------------------------------3-----------------------------
 --4--2--4--2--4--2-------4--2--4-----4--2----2--0--2--0--2--0---
 --------------------4-------------------------------------------
 ----------------------------------------------------------------
 ----------------------------------------------------------------

 ----------------------------------------------------------------
 ----------------------------------------------------------------
 --2--0--2--0--2--0----4--2--4--2--4--2--------------------------
 ----------------------------------------4-----------------------
 ----------------------------------------------------------------
 ----------------------------------------------------------------

Todo esto...tokkalo dos veces.

 SOL         RE                LA   LA
Voy a quemar la piedra de tu locura

etc....

el rasgueo es algo asi...

abajo - arriva - arriva - abajo - y parar las cuerdas.

Fuente original ATAME [www.atame.org]
Colaborador original: PIoji [pioji_piojosa@hotmail.com]

Fuente: tusacordes.com