a b c d e f g h i j k l m n o p q r s t u v w x y z 0-9

Te Diria

Los Piojos

			
Esta es una corrección, de una muy buena transcripción.

NOTA: Se toca con transporte en el 3º traste. 
Las notas se arman desde allí.

SOL:653336
SOL11+:xxx356
FA:466544
DO:x65343


Intro: SOL - SOL11+ x4

      SOL           SOL11+      FA
Si dijéramos que el día es la careta
      SOL             SOL11+          FA
si dijeramos que en la noche está el tango
      SOL        SOL11+       FA
si dijeramos que ya no tenés miedos
       SOL            SOL11+      FA
cuando lo único que amás es el espanto

      FA                       DO
Te diría que estás muerta mi amor
                   SOL - SOL11+
por eso te estoy amando...

Si dijeramos que el sol cae sin ganas
en el cielo cuando el cielo está escapando
y la soledad es mas sola en la cama
y la luna es una lágrima sin llanto

Te diría que estas muerta mi amor
por eso te estoy amando...

Si dijeramos que nunca hubo tan bella
una noche como esta tuya y mía
si dijeramos que bajo las estrellas
tu mirada y mi mirada están perdidas

Te diría que estoy muerto mi amor
eso es lo que te diría

SOL  -  SOL11+ 
Na na na...

Yo te amaré...
hoy, hoy...

SOL- FA
Te diría...

Final: SOL ? SOL11+ - SOL

SOLO:

e -------------------------------------------------------------
B -------------------------------------------------------------
G -5-7-8-7-5-7-8-7-5--7--5-----5-7-8-7-5-7-8-7-5-7--5--8-------
D --------------------------6----------------------------------
A -------------------------------------------------------------
E -------------------------------------------------------------

e -------------------------------------------------------------
B -------------------------------------------------------------
G -5-7-8-7-5-7-8-7-5--7--5-----5-7-8-7-5-7-8-7-5-7--5--8--8/12-
D --------------------------6----------------------------------
A -------------------------------------------------------------
E -------------------------------------------------------------

En lugar de FA creo que se puede tocar esto:

e -------------------------------------------------------------
B -------------------------------------------------------------
G ?8-7-5-8--7-5-8--7-5-8--7-5----------------------------------
D -------------------------------------------------------------
A -------------------------------------------------------------
E -------------------------------------------------------------

Sin transporte se puede tocar igual, pasando todo 1 tono y medio 
3 trastes hacia arriba.

SOL: 320003
SOL11+: XXX023
FA: 133211
DO: X32010

Cualquier duda, sugerencia y/o comentario: wwwchuckymail@yahoo.com.ar

Fuente original ATAME [www.atame.org]
Colaborador original: Juan Manuel Stalla [wwwchuckymail@yahoo.com.ar]

Fuente: tusacordes.com