a b c d e f g h i j k l m n o p q r s t u v w x y z 0-9

Te Diria

Los Piojos

G
F
C
			
 INTRO: G
*****

G                                 F
 Si dijéramos que el día es la careta
    G                                  F
 si dijéramos que en la noche está el tango
    G                           F
 si dijéramos que ya no tenes miedos
           G                       F
 cúando lo único que amás es el aspanto.
F
 Te diría
F                 C C7
 que estás muerta
C   C7   C  C7
 mi amor
C    C7  C    C7    G    Gsus G
 por eso te estoy amando.

G                                   F          
 Si dijéramos que el sol cae sin ganas
         G                             F  
 en el cielo cuando el cielo está escapando
       G                         F
 y la soledad es mas sola en la cama
       G                   F
 y la Luna es una lágrima sin llanto.
F
 Te diría
F                 C C7
 que estás muerta
C   C7   C  C7
 mi amor
C    C7  C    C7    G    Gsus G
 por eso te estoy amando.

G                                 F 
 Si dijéramos que nunca hubo tan bella
      G                      F
 una noche como esta tuya y mía.
    G                          F 
 Si dijéramos que bajo las estrellas
     G                           F 
 tu mirada y mi mirada están perdidas.

F
 Te diría
F                 C  C7
 que estoy muerto
C   C7   C  C7
 mi amor
C    C7    C   C7    G    Gsus G
 eso es lo que te diría.

C  C7  C  C7         
 Na, na, na,
C  C7  C   G
 Yo te amaré
  F
 hoy.

SOLO <---------------------->
****

C       C7         C             
 Ahora sola en la celda
        C     C7
 en la celda sola
C       C7         C        
 Ahora sola en la celda
  C7
 sola.


RIFF [se toca constantemente]
****
e|-3-3-3---------------|
B|-3-3-3-3-4-5-6-5-4-3-|
G|---------------------|
D|---------------------|
A|---------------------|
E|---------------------| 

SOLO
****
e|---------------------------|
B|---------------------------|
G|-0-1-3-1-0-2-3-------------|    X 2
D|---------------5-3-2-------|
A|---------------------4-2-0-|
E|---------------------------|

e|--------------------------------|
B|--------------------------------|
G|-0-1-3-1-0-2-3------------------|    
D|---------------5-3-2------------|
A|---------------------4-2-0--3/7-| Slide: /
E|--------------------------------|

Chau!!
Aguante Los Piojos!!!
Y UNO ES TODOS Y TODOS SOMOS UNO 

Fuente original ATAME [www.atame.org]
Colaborador original: Hernán Javier Ihasz [hernanjavier77@hotmail.com]

Fuente: tusacordes.com