a b c d e f g h i j k l m n o p q r s t u v w x y z 0-9

Taxi Boy

Los Piojos

			
Intro
G|-----|------------|
D|-----|------------|
A|-----|----545-547-|
E|-2-3-|-545--------|
       | OCHO Veces |
Verso 1
G|--------------|-----------|--------------|
D|--------------|--4-4------|--------------|
A|---------7-54-|-5-5-5-----|---------7-54-|
E|-54-54-54-----|-------345-|-54-54-54-----|
 | CUATRO Veces |CUATROveces| CUATRO Veces |

Coro
G|------------|-----------|
D|--4-4--567--|--4--------|
A|-5-5-5------|-5-5-4-3-5-|
E|------------|-----------|
 | TRES Veces |

Puente
G|------------|x4
D|------------|
A|----545-547-|
E|-545--------|

Verso 2
G|--------------|x12
D|--------------|
A|---------7-54-|
E|-54-54-54-----|

Solo de Guitarra
G|-----------|x4
D|--4-4------|
A|-5-5-5-----|
E|-----------|

Verso 3
G|--------------|x4
D|--------------|
A|---------7-54-|
E|-54-54-54-----|

Coro
G|------------|-----------|
D|--4-4--567--|--4--------|
A|-5-5-5------|-5-5-4-3-5-|
E|------------|-----------|
 | TRES Veces |

Puente
G|------------|x4
D|------------|
A|----545-547-|
E|-545--------|

Verso 4
G|--------------|x16
D|--------------|
A|---------7-54-|
E|-54-54-54-----|

Coro
G|------------|-----------|
D|--4-4--567--|--4--------|
A|-5-5-5------|-5-5-4-3-5-|
E|------------|-----------|
 | TRES Veces |

Puente **HASTA EL FINAL**
G|------------|
D|------------|
A|----545-547-|
E|-545--------|

Escuchá la canción para saber el ritmo

Fuente original ATAME [www.atame.org]
Colaborador original: Sebastián Vidondo [rojoamargodelsiglo@yahoo.com.ar]

Fuente: tusacordes.com