a b c d e f g h i j k l m n o p q r s t u v w x y z 0-9

Tan Solo

Los Piojos

			
bueno esta es tan solo de los piojos para bajo acá va


Se repite en todo el tema
?
G-------------------------------------------------|
D------------------------10-----------------------|
A---10-10-------10-9-8-8----8-----------7-7-8-9-10|
E---------10-10---------------10-9-8--8-----------|


G-------------------------------------------------|
D-------------------------------------------------|
A-------------------------------------10-------8-9|
E----------------------------------------10-10----|

Esta parte es cuando canta:Salta la cuerda se enrieda y
Cae de boca  
?
G-----------------------------------------------------|
D-----------------------------------------------------|
A--10-10-10-10-8-8-8-8----------10-10-10-10-----------|
E---------------------10-10-10-10---------------------|

Fuente: tusacordes.com