a b c d e f g h i j k l m n o p q r s t u v w x y z 0-9

Tan Solo

Los Piojos

			
riff con guitarra


----------------|---------------|---------------|-------------
----------------|---------------|---------------|-------------
----------------|---------------|---------------|-------------
----------------|---5-----------|---------------|---------5---
-5-5----5-4-3---|-3---3---------|---2-2-3-4-5---|-5-----5---5-
----5-5---------|-------5-4-3---|-3-------------|---5-5-------

 

lo con armonica pasado a guitarra

-----------1----|-----------1---|-----------1---|-------------
---3-3-2-3------|---3-3-2-3-----|---3-3-2-3-----|---1---------
-0--------------|-0-------------|-0-------------|-0---3-0-----
----------------|---------------|---------------|-------------
----------------|---------------|---------------|-------------








muy buena cancion...

aguante nirvana!!

Fuente: tusacordes.com