a b c d e f g h i j k l m n o p q r s t u v w x y z 0-9

Tan Solo

Los Piojos

			
-------------------|-------------------------|-------------------------|
-------------------|--2--3--2--3-------------|--2--3--2--3-------------|
----------------0--|--------------3--0----0--|--------------3--0----0--|
-------------------|-------------------------|-------------------------|
-------------------|-------------------------|-------------------------|
-------------------|-------------------------|-------------------------|


                                                                          
--------------------------|--------------------|-------------------------|
--------------------------|----0---------------|--2--3--2--3-------------|
-----0--0-----0--------2--|-----------------0--|--------------3--0----0--|
--2--------2--------2-----|--------------------|-------------------------|
--------------------------|--------------------|-------------------------|
--------------------------|--------------------|-------------------------|


                                                                         
-------------------------|-------------------------|--------------------|
--2--3--2--3-------------|-------------------------|----0------------3--|
----------------3--0--0--|-----0--0-------0-----2--|--------------------|
-------------------------|--2--------2-------2-----|--------------------|
-------------------------|-------------------------|--------------------|
-------------------------|-------------------------|--------------------|


                                                                           
------------------------|------------------------|------------------------|
----3--1--3----------1--|-------1-----1-------1--|-----1---------1-----1--|
-------------3--0-------|----3-----3-----3-------|--3-----3---------3-----|
------------------------|------------------------|------------------------|
------------------------|------------------------|------------------------|
------------------------|------------------------|------------------------|


                                                                         
--------------------|-------------------------|-------------------------|
----0---------------|--3--3--1--3-------------|--3--3--1--3-------------|
-----------------0--|--------------3--0----0--|--------------3--0----0--|
--------------------|-------------------------|-------------------------|
--------------------|-------------------------|-------------------------|
--------------------|-------------------------|-------------------------|


                                                                   
--------------------------|-------------------|-------------------|
--------------------------|----0--------------|--3----------------|
-----0--0-----0--------3--|-------------------|-------------------|
--2--------2--------2-----|-------------------|-------------------|
--------------------------|-------------------|-------------------|
--------------------------|-------------------|-------------------|


                                                                
------------------------|-------------------|------------------|
----------------3-------|-------------------|------------------|
--3--2----0----------3--|----0--------------|------------------|
------------------------|-------------------|------------------|
------------------------|-------------------|------------------|
------------------------|-------------------|------------------|


                                                                
-------------------|-----------------------|-------------------|
--3----------------|---------------3-------|-------------------|
-------------------|--3--2----0---------3--|----0--------------|
-------------------|-----------------------|-------------------|
-------------------|-----------------------|-------------------|
-------------------|-----------------------|-------------------|


                                                                        
-------------------|-------------------------|-------------------------|
-------------------|--2--3--2--3-------------|--2--3--2--3-------------|
----------------0--|--------------3--0----0--|--------------3--0----0--|
-------------------|-------------------------|-------------------------|
-------------------|-------------------------|-------------------------|
-------------------|-------------------------|-------------------------|


                                                                          
--------------------------|--------------------|-------------------------|
--------------------------|----0---------------|--2--3--1--3----------1--|
-----0--0-----0--------2--|-----------------0--|--------------3--0-------|
--2--------2--------2-----|--------------------|-------------------------|
--------------------------|--------------------|-------------------------|
--------------------------|--------------------|-------------------------|


                                                                          
------------------------|------------------------|-----------------------|
-------1-----1-------1--|-----1---------1-----1--|----0------------------|
----3-----3-----3-------|--3-----3---------3-----|-----------3--3--3--0--|
------------------------|------------------------|-----------------------|
------------------------|------------------------|-----------------------|
------------------------|------------------------|-----------------------|


                                                                           
--------------------------|-----------------------|-----------------------|
--------------------------|-----------------------|-----------------------|
--3-----3--0--3--3-----0--|--3--3--0--3--3--------|--3-----3----3----3----|
--------------------------|-----------------------|-----------------------|
--------------------------|-----------------------|-----------------------|
--------------------------|-----------------------|-----------------------|


                                                                         
----------------------|-------------------------|-----------------------|
----------------------|-------------------------|-----------------------|
----3----3------3--3--|--3--3--0--3--3----3--0--|--3--3--0--3--3--------|
----------------------|-------------------------|-----------------------|
----------------------|-------------------------|-----------------------|
----------------------|-------------------------|-----------------------|


                                                              
---------------------|-------------------|-------------------|
---------------------|-------------------|--3----------------|
---------------------|----0--------------|-------------------|
------------3--3--3--|-------------------|-------------------|
---------------------|-------------------|-------------------|
---------------------|-------------------|-------------------|


                                                                
------------------------|-------------------|------------------|
----------------3-------|-------------------|------------------|
--3--2----0----------3--|----0--------------|------------------|
------------------------|-------------------|------------------|
------------------------|-------------------|------------------|
------------------------|-------------------|------------------|


                                                                
-------------------|-----------------------|-------------------|
--3----------------|---------------3-------|-------------------|
-------------------|--3--2----0---------3--|----0--------------|
-------------------|-----------------------|-------------------|
-------------------|-----------------------|-------------------|
-------------------|-----------------------|-------------------|


                                                                 
------------------|----------------------|----------------------|
------------------|----------------------|----------------------|
------------------|--0----0--------------|----0-----------------|
------------------|----------------3--3--|----------------3--3--|
------------------|----------------------|----------------------|
------------------|----------------------|----------------------|


                                                                     
------------------------|-------------------|-----------------------|
------------------------|-------------------|-----------------------|
----0-------------------|----0--------------|--0----0---------------|
---------3--3--3--3--3--|-------------------|----------------3--3---|
------------------------|-------------------|-----------------------|
------------------------|-------------------|-----------------------|


                                                                   
---------------------|------------------------|-------------------|
---------------------|------------------------|-------------------|
----0----------------|----0-------------------|-------------------|
---------------3--3--|---------3--3--3--3--3--|-------------------|
---------------------|------------------------|----4--------------|
---------------------|------------------------|-------------------|


                                                                      
-----------------------|---------------------|-----------------------|
-----------------------|---------------------|----------------1------|
--0----0---------0-----|----0----------------|----0-------3-------3--|
--------------------3--|---------------3--3--|---------3-------------|
-----------------------|---------------------|-----------------------|
-----------------------|---------------------|-----------------------|


                                                                   
---------------------|----------------------|---------------------|
--1---0--------------|----------------------|---------------------|
---------------------|--0----0--------------|----0----------------|
---------------------|---------------3--3---|---------------3--3--|
---------------------|----------------------|---------------------|
---------------------|----------------------|---------------------|


                                                               
------------------------|------------------|------------------|
------------------------|------------------|------------------|
----0-------------------|---0--------------|------------------|
---------3--3--3--3--3--|------------------|------------------|
------------------------|------------------|------------------|
------------------------|------------------|------------------|


                                                                            
------------------|------------------|------------------|------------------|
------------------|------------------|------------------|------------------|
------------------|------------------|------------------|------------------|
------------------|------------------|------------------|------------------|
------------------|------------------|------------------|------------------|
------------------|------------------|------------------|------------------|


                                                                             
------------------|------------------|------------------|-------------------|
------------------|------------------|------------------|--3----------------|
------------------|------------------|------------------|-------------------|
------------------|------------------|------------------|-------------------|
------------------|------------------|------------------|-------------------|
------------------|------------------|------------------|-------------------|


                                                                
------------------------|-------------------|------------------|
----------------3-------|-------------------|------------------|
--3--2----0----------3--|----0--------------|------------------|
------------------------|-------------------|------------------|
------------------------|-------------------|------------------|
------------------------|-------------------|------------------|


                                                                            
-------------------|-----------------------|-------------------|----------||
--3----------------|---------------3-------|-------------------|----------||
-------------------|--3--2----0---------3--|----0--------------|----------||
-------------------|-----------------------|-------------------|----------||
-------------------|-----------------------|-------------------|----------||
-------------------|-----------------------|-------------------|----------||

Fuente original ATAME [www.atame.org]
Colaborador original: Julian [skaybeilinson_1@hotmail.com]

Fuente: tusacordes.com