a b c d e f g h i j k l m n o p q r s t u v w x y z 0-9

Tan Solo

Los Piojos

			
Esta es la introdución que se repite cinco veses antes
de la melodia y tambien se puede repetir durante todo
el tema:
  e------------------------------------------
  B------------------------------------------
  G------------------------------------------
  D-0--0--------------5----------------------
  A------0-0-5-4-3--3---3-0---------2-3-4----
  E-------------------------4-3---3-------0-0


Esta es la melodia que se repite cuatro veses hasta el
estribillo:

  e------------------------------------------
  B---33-13-0------33-13-0------------0------
  G-0---------0--0---------0--0---00-2-------
  D-----------------------------3---3--------
  A------------------------------------------
  E------------------------------------------

Este es el estribillo:

  e------------------------------------------
  B-3----------------------------------------
  G------2--3-2-0----------------------------
  D------------------------------------------
  A------------------------------------------
  E------------------------------------------

Despues se repite la intro toda la canción.

Fuente original ATAME [www.atame.org]
Colaborador original: Maxi Ratto [maxilospiojos@hotmail.com]

Fuente: tusacordes.com