a b c d e f g h i j k l m n o p q r s t u v w x y z 0-9

Tan Solo

Los Piojos

			
Base:

G|---------------5-------------------------------4------|
D|-5-5-----5-4-3---3---------2-2-3-4-5-5-0-0-4h5--------|
A|-----5-5-----------5-4-3-3----------------------------|
E|------------------------------------------------------|


Estribillo (La parte de: Salta la cuerda...

G|---------------------------555-5----------------------|
D|----555-5-------333-3-----5---5-------555-5-----------|
A|---5---5-------3---3----33-----------5---5------------|
E|-33----------11--------------------33-----------------|

Eso es todo, si tienen alguna duda manden un mail.
Chau

Fuente original ATAME [www.atame.org]
Colaborador original: Punkie [bajista_de_nifh@yahoo.com.ar]

Fuente: tusacordes.com