a b c d e f g h i j k l m n o p q r s t u v w x y z 0-9

Tan Solo

Los Piojos

			
Como todas las tablaturas q encontre de este tema me sonaban mal, la saque yo

g#-f#-c#-g#


g|--------------------------------------------------------------------------|
d|-------------------------11-----------------------------------------------|
a|-11--11-------11-10-9--9----9------------8-8-9-10-11--11-------9-10-11*-|
e|--------11-11-----------------11-10-9--9-----------------11-11------------|

* el ultimo g# es el primero de la tablatura


repite todo el tiempo esto, pero cada tanto cambia el final haciendo esto


g|------------------------------------------------------------------------------|
d|-------------------------11------------------------------------------10-------|
a|-11--11-------11-10-9--9----9------------8-8-9-10-11--11--------9p11----11*-|
e|--------11-11-----------------11-10-9--9-----------------11--11---------------|


la primera vez q llega a la parte q dice Ho! Tan Solo... hace


g|----------------------------------------------------------------------|
d|----------------------------------------------------------------------|
a|-11---9---------11---11---9---------11--11-------9-10-11*-|
e|--------------9-----------------------9----------11-11------------|


despues sigue normal pero en una parte le mete una variacion


g|-------------------------------------------------------------------------|
d|-------------------------11----------------------------------------------|
a|-11--11-------11-10-9--9----9------------------8-11--11-------9-10-11*-|
e|--------11-11-----------------11-10-9--999-999----------11-11------------|


y en la parte donde dice salta la cuerda... hace


g|----------------------------------------------------------------------------|
d|----------------------------------------------------------------------------|
a|-11-11--11-11--11-11--9-9--9-9--9-9-9----------------8/11--11-11--11-11--11-| 1
e|---------------------------------------9-9--9-9--9-9------------------------|

1 en esta parte no importa si no tocas justo como es lo importante es q sigas es el ritmo


despues sigue normal hasta q llega a la parte q dice Ho! Tan Solo... donde ahora hace


g|-----------------------------------------------------------------------------|
d|-----------------------------------------------------------------------------|
a|-11--11-11-11-11-11-11---9--9-9-9-9-9-9--------------8-9-11--11-11-11-11-8-9-|
e|------------------------------------------9--9-9-9-9-------------------------|

g|------------------------------------------------------------------------|
d|------------------------------------------------------------------------|
a|-11--11-11-11-11----8-9--9-9-9-9----------------8-9---11--11----11--11--|
e|-----------------11--------------7-8-9--9-9-9-9-------------------------|


En la mayoria te ponen q es g-f-c-g, pero si lo tocas arriba del tema vas a ver q es g#-f#-c#-g#
La tablatura esta casi perfecta....
la unica parte q no tenia ganas de ver bien es la de salta la cuerda...,
xq ahi solo importa seguir el ritmo

Fuente original ATAME [www.atame.org]
Colaborador original: Gustavo [tavo85_monty@hotmail.com]

Fuente: tusacordes.com