a b c d e f g h i j k l m n o p q r s t u v w x y z 0-9

Tan Solo

Los Piojos

			
INTRO:
1.--------------------------------------------------------------------
2.--------------------------------------------------------------------
3.--------------------------------------------------------------------
4.--------------------------------------------------------------------
5.--10--10---------10-9-8----9-------9-8-7----8-------8-7-6---6x3--7--
6.----------10-10---------------10-10------------10-10----------------

1.--------------------------------------------------------------------
2.--------------------------------------------------------------------
3.--------------------------------------------------------------------
4.--------------------------------------------------------------------
5.--10--10---------10-9-8----9-------9-8-7----8-------8-7-6---6x4-----
6.----------10-10---------------10-10------------10-10----------------

SIGUE:
1.------------1
2.----3-3-2-3--
3.--0----------    TRES VECES...
4.-------------
5.-------------
6.-------------

DESPUES DE LAS 3 VECES HACES:
1.-------------
2.--------1-3-0
3.--0-3-3------
4.-------------
5.-------------
6.-------------

LUEGO SE REPITE LA 2da PARTE y LA 3ra, al igual q antes

Fuente original ATAME [www.atame.org]
Colaborador original: ToMˇ [mastertomas@gmx.net]

Fuente: tusacordes.com