a b c d e f g h i j k l m n o p q r s t u v w x y z 0-9

Sudestada

Los Piojos

			
Riff 1			 *
-0---0---0---2---2---5-|-----------------------------||
-0---0---0---2---2---5-|-----------------------------||
-1---1---1---2---2---5-|-----------1-------------1---||
-2---2---2---2---2---7-|----2----2---2----2----2---2-||
-4---3---4---0---0---7-|-------3-------4-----3-------||
---------------------5-|-0---------------------------||
   Guitarra 1                                                                 

Riff 1			 *
-0---7---7--12--12---5-|-0-----3-------4-----3-------||
-0---9---9--14--14---5-|-0-----5-------5-----5-------||
-1---9---9--14--14---5-|-1-----5-------6-----5-------||
-2---9---9--14--14---7-|-2-----5-------6-----5-------||
-2---7---7--12--12---7-|-2-----3-------4-----3-------||
-0-------------------5-|-0---------------------------||
   Guitarra 2                                                                 

Riff 2	     
-0---0---2---5-|-----------------------------||
-0---0---2---5-|-----------------------------||
-1---1---2---5-|-----------1-------------1---||
-2---2---4---7-|----2----2---2----2----2---2-||
-2---2---4---7-|-------3-------4-----3-------||
-0---0---2---5-|-0---------------------------||
   Guitarra 1                                                                 

Riff 2
-0---4---2---5-|-0-----3-------4-----3-------||
-0---5---2---5-|-0-----5-------5-----5-------||
-1---6---2---5-|-1-----5-------6-----5-------||
-2---6---4---7-|-2-----5-------6-----5-------||
-2---4---4---7-|-2-----3-------4-----3-------||
-0-------2---5-|-0---------------------------||
   Guitarra 2                                                                 


Intro: Riff 1

Riff 2
Vivo en sudestada desde que recuerdo yo
Y por la vida no, pasa la vía del sol
Riff 2
Nuestro pensamiento aquí varado se quedo
Mezcla de sonrisa gris llanto feliz y dolor.

Riff 1

Cuando la marea baja ves el basural
Un natural color de historia sucia y de hoy.
Imagen difusa veo en la felicidad
Creo alcanzarla y no creí que ahí estaba y se va.

C#m		 Abm
Sudestada todo se movió
A		  C#m
Tus colores renuevan la suerte
C#m		    Abm  
Hoy amanecer es un renacer
A		C#m
Sudestada desolada ausente.

Riff 1

Desde la conciencia y la inconciencia se ve igual
Quien no soñó una vez, que la emoción sea todo
Y en una pendiente voy sin guías ni motor
Rumbo a un umbral de ayer con la esperanza de hoy.

Sudestada todo se movió
Tus colores renuevan la suerte
Hoy amanecer es un renacer
Sudestada desolada ausente. x 2

Riff 1 apartir de *x 4
E

Fuente original ATAME [www.atame.org]
Colaborador original: Goncho87 [grafuls@yahoo.com.ar]

Fuente: tusacordes.com