a b c d e f g h i j k l m n o p q r s t u v w x y z 0-9

Sudestada

Los Piojos

A
F#m
E
C#m
Am
			
 Bueno, esta tablatura es en realidad una combinacion
de todas las que hay en ATAME porque ninguna
terminaba de convencer...fue solo juntarlas para
que suene bien... los dejo...


Intro:      Aca empieza el siguiente arpegio:
-0---0--0---2---2---5-|-----------------------------||
-0---0--0---2---2---5-|-----------------------------||
-1---1--1---2---2---5-|-----------1-------------1---||
-2---2--2---2---2---7-|----2----2---2----2----2---2-||
-4---3--4---0---0---7-|-------3-------4-----3-------||
--------------------5-|-0---------------------------||

-0-----0-------0-----0-------||
-0-----0-------0-----0-------||
-1-----1-------1-----1-------||
-2-----2-------2-----2-------||
-2-----3-------4-----3-------||
-0---------------------------||


Riff
-0---4---2---5-|---0----------------------||
-0---5---2---5-|---0----0------0-----0----||
-1---6---2---5-|---1----1------1-----1----||
-2---6---4---7-|------2---1----2---2---2--||
-2---4---4---7-|----3--------4---3--------||
-0-------2---5-|-0------------------------||


En A estrofa, en el F#m empieza el siguiente arpegio:
|-----------------------------||
|-----------------------------||
|-----------1-------------1---||
|----2----2---2----2----2---2-||
|-------3-------4-----3-------||
|-0---------------------------||


Intro

E                       C#m
Vivo en sudestada desde que recuerdo yo
F#m              Am                  [riff]
   Y por la vida no, pasa la vía del Sol 
Nuestro pensamiento aquí varado se quedo
Mezcla de sonrisa gris llanto feliz y dolor.

Intro

Cuando la marea baja ves el basural
Un natural color de historia sucia y de hoy.
Imagen difusa veo en la felicidad
Creo alcanzarla y no creí que ahí estaba y se va.

C#m		 Abm
Sudestada todo se movió
A		  C#m
Tus colores renuevan la suerte
C#m		    Abm
Hoy amanecer es un renacer
A		C#m
Sudestada desolada ausente.

Intro

Desde la conciencia y la inconciencia se ve igual
Quien no soñó una vez, que la emoción sea todo
Y en una pendiente voy sin guías ni motor
Rumbo a un umbral de ayer con la esperanza de hoy.

Sudestada todo se movió
Tus colores renuevan la suerte
Hoy amanecer es un renacer
Sudestada desolada ausente. [x 2]

Intro [x 4] E 

Fuente original ATAME [www.atame.org]
Colaborador original: Tuli [santiago_ambrogi@hotmail.com]

Fuente: tusacordes.com