a b c d e f g h i j k l m n o p q r s t u v w x y z 0-9

Solo Y En Paz

Los Piojos

Am
E
			
 Intro

----------------------------------------
----------------------------------------
--1-2-1-0-------------------------------
----------4-4-5-4-3-2-2-3-------2-------
---------------------------3-2----------
----------------------------------------

---------------------------------------
--------1-0-1-2-3-----3-5-0------------
------2-----------2---------1----------
----2---------------3------------------
--3------------------------------------
---------------------------------------

Am            Fa7           Mi7
  Mirá que bien,  se hizo de noche
Am     LAm/SOL Fa7         Mi7
  humo y ardor,   ningún reproche
Am            Fa7         Mi7
  en el cristal  dejás tu hielo
Am             Fa7       MI5+  E Am
  te gusta andar  por mi mejor  lu-gar


Mi corazón se va de pista,
tanto color hay a la vista,
cuando bailas no queda nada
Am           Fa7     Mi7
  sólo mi piel  ilusionada


Re6          Si7
Y si... nos volvemos algo locos
  Re6           Si7
y mas... queriendo sobrevivir,
  Re6                Si7
sabes... me hiciste cómplice de todo
Fa7           Mi7    Am
todo eso me hiciste- eh


Am      Fa7  Mi7
  En el cami- no
Am         Fa7  Mi7
  las luces bri- llan
En el camino
tus ojos brillan


Nos volvemos algo locos...
En el camino... 

Fuente original ATAME [www.atame.org]
Colaborador original: Sofia Oliveri [gallinita_9@hotmail.com]

Fuente: tusacordes.com