a b c d e f g h i j k l m n o p q r s t u v w x y z 0-9

Siempre Bajando

Los Piojos

			
Intro Armonica

1--13-12-10-12-10-10-10------------10--
2-----------------------13-13-13-13--12
3--------------------------------------
4--------------------------------------
5--------------------------------------
6--------------------------------------

1--13-12-10-12-10-10-10------------10-12-10
2------------------------------------------
3------------------------------------------
4------------------------------------------
5------------------------------------------
6------------------------------------------

Punteo Base

   G  Bb  C
1--------------
2-----3h5-5p3--
3-----3h5-5p3-0
4--5-----------
5--5-----------
6--3-----------

Todo sobre Base

No me quemes la cabeza
si tu fuego ya no existe
voy a volverte a ver 
solo porque lo quisiste

Bb
siempre bajando
A
siempre bajando 

cuatro meses cuatro viajes
con los chicos de Neptuno
por mas que te haya dejado mi amor
mi amor sigue siendo uno

siempre bajando
siempre bajando 
siempre bajando
siempre bajando 

Base
tu luz nena fue un flash
me ensegueció y me dejaste aca atrás
ahora tengo, veo bien, un disparo
atravesando mi sien
solo te pido un favor:
fuera de mi corazón
y no hablés de soledad
a los buitres ya veo volar

Hace este punteo

1--------------
2--------------
3--------------
4--2-2--------2
5--2-2--------2
6--0-0-3h4p3h4-

Final de armonica

1----12------9---10-9--------------
2--12---9-10----------12-10-9-10-12
3----------------------------------
4----------------------------------
5----------------------------------
6----------------------------------

1----12------9---10-9--------------
2--12---9-10----------12-10-9-10---
3----------------------------------
4---------------------------------2
5---------------------------------2
6---------------------------------0

Fuente original ATAME [www.atame.org]
Colaborador original: Nico Villagra Lopez [nicovl86@yahoo.com.ar]

Fuente: tusacordes.com