a b c d e f g h i j k l m n o p q r s t u v w x y z 0-9

Siempre Bajando

Los Piojos

A
			
 intro:[Em7-A]x3 Em7
silencio Em7-A


       Em7 A      Em7 A 
No me quemes la cabeza
      Em7  A       Em7  A 
si tu fuego ya no existe
voy a volverte a ver 
solo porque lo quisiste
Em7
siempre bajando
A
siempre bajando 

cuatro meses cuatro viajes
con los chicos de Neptuno
por mas que te haya dejado mi amor
mi amor sigue siendo uno

siempre bajando
siempre bajando 
siempre bajando
siempre bajando 

tu luz nena fue un flash
me ensegueció y me dejaste aca atrás
ahora tengo, veo bien, un disparo
atravesando mi sien
solo te pido un favor:
fuera de mi corazón
y no hablés de soledad
a los buitres ya veo volar

Riff final:

e|--------------------|
B|--------------------|
G|--------------------|
D|--------------------|
A|--2----2---2--2-----|
E|--0----0---3^-3^----|

  ^:BEND

     Em7
e|----x----0----||
B|----3----2----||
G|----0----2----||
D|----2----2----||
A|----2----0----||
E|----0----x----||


AGUANTE PLAZA VEA 

Fuente original ATAME [www.atame.org]
Colaborador original: quemero [quemeropiojoso@hotmail.com]

Fuente: tusacordes.com