a b c d e f g h i j k l m n o p q r s t u v w x y z 0-9

Shup - Shup

Los Piojos

			
Intro y 1º verso, solo Guitarra

2º Verso:
G|-------------------------------|x4
D|----------------------7---5----|
A|-------4-5-7-5--5-7-5---5---5--|
E|-5-5-7-------------------------|


Coro:
G|--------------------------4-6--|x4
D|--------------------4-5-7------|
A|-------4-5-7-5--5-7------------|
E|-5-5-7-------------------------|

Puente, y 3º verso en Guitarra

4º Verso:
G|-------------------------------|x4
D|----------------------7---5----|
A|-------4-5-7-5--5-7-5---5---5--|
E|-5-5-7-------------------------|

Coro:
G|--------------------------4-6--|x4
D|--------------------4-5-7------|
A|-------4-5-7-5--5-7------------|
E|-5-5-7-------------------------|

Solo de Guitarra:
G|-----------------6-7-8-----------------------|x2
D|------4-5-6-77-9------------6-7-8------6-7-8-|
A|-55-7------------------77-9-------77-9-------|
E|---------------------------------------------|

Solo de Harmónica:
G|-------------------------------|x8
D|----------------------7---5----|
A|-------4-5-7-5--5-7-5---5---5--|
E|-5-5-7-------------------------|

5º Verso:
G|-------------------------------|x4
D|----------------------7---5----|
A|-------4-5-7-5--5-7-5---5---5--|
E|-5-5-7-------------------------|

Coro:
G|--------------------------4-6--|x4
D|--------------------4-5-7------|
A|-------4-5-7-5--5-7------------|
E|-5-5-7-------------------------|

Escuchá la canción para saber el ritmo

Fuente original ATAME [www.atame.org]
Colaborador original: Sebastián Vidondo [rojoamargodelsiglo@yahoo.com.ar]

Fuente: tusacordes.com