a b c d e f g h i j k l m n o p q r s t u v w x y z 0-9

Ruleta

Los Piojos

			
Intro: En vivo la hace Chucky

Va Tranqui:

        D           Bm          A              D
e|------------|----7------|-------5---|--|--5~-------|
b|-------7----|-------7---|---------5-|--|--7~-------|
g|-----7---5--|-----------|-----------|x2|--7~-------|
d|---7-------5|-----------|---7-------|--|--7~-------|
a|-5----------|--9--------|-----------|--|--5~-------|
E|------------|-----------|-----------|--|-----------|


Empieza la banda:

Guitarra 1:
Bastante rapido
       D            Bm            A
e|----5-------|----7------|----5------|--|
b|------5-----|------7----|------5----|--|
g|-7--------7-|--------7--|--------6--|x4|
d|7-7-----7--7|-9--------9|--7-------7|--|
a|------------|-----------|-----------|--|
E|------------|-----------|-----------|--|

Guitarra 2:
Acordes
       D           Bm
e|-5-5-5-5-5-5-|7---7---7|5---5---5|--|
b|-7-7-7-7-7-5-|7---7---7|5---5---5|--|
g|-7-7-7-7-7-7-|7---7---7|6---6---6|x4|
d|-7-7-7-7-7-7-|9---9---9|7---7---7|--|
a|-5-5-5-5-5-5-|9---9---9|7---7---7|--|
E|-------------|7---7---7|5---5---5|--|

Estrofa 1:

Guitarra 1:
Se escucha poco pero es mas o menos asi
       D            Bm            A
e|------------|-----------|-----------|--|
b|------------|-----------|-----------|--|
g|----2--2----|-----------|-----------|x4|
d|--0------0-0|-----9-----|----7---7--|--|
a|0-----0---0-|---9---9---|---7-7-7---|--|
E|------------|-7-------7-|-5---------|--|

Guitarra 2:
Acordes
     D       Bm      A
e|---5---|---7---|---5---|--|
b|---7---|---7---|---5---|--|
g|---7---|---7---|---6---|x4|
d|---7---|---9---|---7---|--|
a|---5---|---9---|---7---|--|
E|-------|---7---|---5---|--|

D            Bm          A
En Comodoro rasgaste mi piel
D              Bm          A
un largo viaje al desierto cruel
D                 Bm      A         D       Bm       A
tus ojos verdes, oasis para mi sed.

Estrofa 2:

Guitarra 1:
       D            Bm            A
e|------------|-----------|-----------|--|
b|------------|-----------|-----------|--|
g|----2--2----|-----------|-----------|x5|
d|--0------0-0|-----9-----|----7---7--|--|
a|0-----0---0-|---9---9---|---7-7-7---|--|
E|------------|-7-------7-|-5---------|--|

Guitarra 2;
       D            Bm            A
e|----5-------|----7------|----5------|--|
b|------5-----|------7----|------5----|--|
g|-7--------7-|--------7--|--------6--|x5|
d|7-7-----7--7|-9--------9|--7-------7|--|
a|------------|-----------|-----------|--|
E|------------|-----------|-----------|--|

D            Bm           A
De la ruleta te quiero llevar,
D                       Bm          A
roja la sangre verde el paño de la libertad,
D                         Bm          A              D        Bm        A
pero mi suerte es negra, mis dientes van a estallar.
D            Bm           A
Oh, oh...

Puente:

   E     Esus4
e|-0---0-0-0-0-0-0-0-0-|
b|-0---0-0-0-0-0-0-0-0-|
g|-1---1-2-2-2-2-2-2-1-|
d|-2---2-2-2-2-2-2-2-2-|
a|-2---2-2-2-2-2-2-2-2-|
E|-0---0-0-0-0-0-0-0-0-|

Estribillo:
Todo acordes

D
Como vas girando voy
A
dónde vas a parar hoy
G
tengo ya hasta la mitad
G
toda bien cubierta ves
F#m7             C#m7                E       Esus4      E
sobre mi calle estás y yo ya te coroné.
D
Y toda mi vida aquí
A
estoy apostando oh
G
girando la bola va
G                     G7
dónde vas a parar hoy,
F#m7             C#m7                E
sobre mi calle estás y yo ya te coroné.

Estrofa 3:
Guitarra 1:
       D            Bm            A
e|------------|-----------|-----------|--|
b|------------|-----------|-----------|--|
g|----2--2----|-----------|-----------|x4|
d|--0------0-0|-----9-----|----7---7--|--|
a|0-----0---0-|---9---9---|---7-7-7---|--|
E|------------|-7-------7-|-5---------|--|

Guitarra 2:
     D       Bm      A
e|---5---|---7---|---5---|--|
b|---7---|---7---|---5---|--|
g|---7---|---7---|---6---|x4|
d|---7---|---9---|---7---|--|
a|---5---|---9---|---7---|--|
E|-------|---7---|---5---|--|
Y cada día trae su color
y cada noche seré un apostador
el cero siempre girando alrededor.

Estrofa 4:

Guitarra 1:
       D            Bm            A
e|------------|-----------|-----------|--|
b|------------|-----------|-----------|--|
g|----2--2----|-----------|-----------|x5|
d|--0------0-0|-----9-----|----7---7--|--|
a|0-----0---0-|---9---9---|---7-7-7---|--|
E|------------|-7-------7-|-5---------|--|

Guitarra 2;
       D            Bm            A
e|----5-------|----7------|----5------|--|
b|------5-----|------7----|------5----|--|
g|-7--------7-|--------7--|--------6--|x5|
d|7-7-----7--7|-9--------9|--7-------7|--|
a|------------|-----------|-----------|--|
E|------------|-----------|-----------|--|

Y ya no creo, no creo en el azar
nada más todo esto tenía que pasar
gracias caja de empleados, propina especial.
Oh, oh...

Estribillo:
Todo acordes

D
Como vas girando voy
A
dónde vas a parar hoy
G
tengo ya hasta la mitad
G
toda bien cubierta ves
F#m7             C#m7                E       Esus4      E
sobre mi calle estás y yo ya te coroné.
D
Y toda mi vida aquí
A
estoy apostando oh
G
girando la bola va
G                     G7
dónde vas a parar hoy,
F#m7             C#m7                E
sobre mi calle estás y yo ya te coroné.


Saludos!Fuente: Tus acordes