a b c d e f g h i j k l m n o p q r s t u v w x y z 0-9

Que Decis

Los Piojos

			
BASE : G

|---------------------------------|
|---------------------------------|
|---------------------------------|
|-----5-0-3-5---------5-0-3-5-----| X3
|-------------1H2P1H2-------------|
|-0-3-----------------------------|

    G
|--3-3---|
|--3-3---|
|--4-4---|
|--5-5---|
|--5-5---|
|--3-3---|

BASE: E

|------------------------------------|
|------------------------------------|
|-----------------0H1O0H1------------|
|---------2-----2---------2-----2----|
|-----------0-4-------------0-4------|
|-0-3/4-------------------------0--|


CORO X2 :

 E5	 	 D5   F5	    
|-------------------------------------------------|
|----7~~----7~~-----------------------------------|
|-9--7~~----7~~--7-7--10--10--9-9-9-9-------------|
|-9--6~~----6~~--7-7--10--10--9-9-9-9-------------|
|-7-------7------5-5---8---8--7-7-7-7-------------|
|-------------------------------------------------|


h : hammer on

p : pull off

/ : estirar

~~ : vibrato

Fuente original ATAME [www.atame.org]
Colaborador original: Nookie [alpiojo2001@hotmail.com]

Fuente: tusacordes.com