a b c d e f g h i j k l m n o p q r s t u v w x y z 0-9

Que Decis

Los Piojos

			
INTRO JUNTO CON LA ARMÓNICA:
1|---------------------------|
2|---------------------------|
3|-----5-7-5-4---5-4---------|
4|-3-7---------7----7-3--3-3-|

Y CASI TODAS LAS PARTES QUE CANTA ES ASÍ:
1|---------|
2|---------|
3|-----5-7-|
4|-3-7-----|

A VECES VUELVE A HACER EL INTRO JUNTO A LA 
ARMÓNICA O SIN LA ARMÓNICA.
SI TIENEN ALGUNA DUDA, COMENTARIO O ARREGLO MANDENME
UN E-MAIL A gera01@uol.com.ar

Fuente original ATAME [www.atame.org]
Colaborador original: Gerardo DAbundo [gera01@uol.com.ar]

Fuente: tusacordes.com