a b c d e f g h i j k l m n o p q r s t u v w x y z 0-9

Pollo Viejo

Los Piojos

			
Intro:
                                                           _
e----------------------------------|----------------------- |
B----------------------------------|----------------------- |
G----------------------------------|----------------------- |
D----------------------------------|----------------------- |
A-----------0--2-------------------|-----------0--2--0----- |
E---0-2-3--------------------------|---0-2-3--------------- |x2
                                                            |
                                                            |
e----------------------------------|----------------------- |
B----------------------------------|----------------------- |
G----------------------------------|----------------------- |
D----------------------------------|----------------------- |
A-----------0--2-------------------|-----------0----------- |
E---0-2-3--------------------------|---0-2-3------0--------_|


     Em
Sabés que sos pollo viejo
     Em
no quieras disimular.
    Em
Sabés que sos pollo viejo
    Em
pero no la pasas mal.


    Am
Cada día mas parecido
     Am
a una vieja te pones
    Em                    Bm
te falta nomás la escoba
   Em
y levantarte a las seis.


Intro x2


     Em
La pastilla azul es fija
      Em
y alguna biaba te das.
      Em
Te acordás como reías
     Em
de los viejos del gotán.



      Am
Tus groupies ya fueron madres
      Am
no podes mirarla así,
      Em               Bm
te hiciste el entretejido
       Em            E7
adorno de Sadaic.



           Am
Cuando veo,
          Em
pasar a las nenas
             B7
siempre dolor,
            B7
siempre dolor
   Em               E7
siempre dolor. bis


Intro x1


Sabés que sos pollo viejo…

Cuando veo… bis

|______________________________________________|
|                                              |

   Punteos Sacados Por: piojo87
   Acordes Sacados Por: FacuFuente: Tus acordes