a b c d e f g h i j k l m n o p q r s t u v w x y z 0-9

Pistolas

Los Piojos

			
Intro
G|-------------------------------------|x4
D|-------------------------------------|
A|----4h5p6-4h5p6-4h5p6----4h5p6-4h5p6-|
E|-55-------------------55-------------|

 |-----------------|x4
 |-----------------|no es exacto pero suena bien
 |---4---2---------|
 |-3---3---3-3-1-3-|

Verso
G|-----------------|x12
D|-----------------|no es exacto pero suena bien
A|---4---2---------|
E|-3---3---3-3-1-3-|

Intro

Verso

Coro **con slap y pop**
G|-----------------------------|x2
D|--------------7-7--------7-7-|
A|----4-5-7-5-4------4-5-7-----|
E|-55--------------------------|
   pp p p p p p s s  p p p s s

 |--------------4-4-------4-4-|
 |----1-2-4-2-1------1-2-4----|
 |-22-------------------------|
 |----------------------------|
   pp p p p p p s s  p p p s s

 |-----------------------------|
 |--------------7-7--------7-7-|
 |----4-5-7-5-4------4-5-7-----|
 |-55--------------------------|
   pp p p p p p s s  p p p s s

Puente x2 y es así... **slap**
G|---------------------------|x4
D|---------------------------|
A|----4-5-7-5-4----4-5-7-5-4-|
E|-55-----------55-----------|

 |---------------------------|x4
 |----1-2-4-2-1----1-2-4-2-1-|
 |-22-----------22-----------|
 |---------------------------|

Intro hasta el Final

Escuchá bien la canción para saber el ritmo

Fuente original ATAME [www.atame.org]
Colaborador original: Sebastián Vidondo [rojoamargodelsiglo@yahoo.com.ar]

Fuente: tusacordes.com