a b c d e f g h i j k l m n o p q r s t u v w x y z 0-9

Pensar En Nada

Los Piojos

			
Intro:
e:-----------------------------------------------------------
B:------3---33------3-------3---33---------------------------
G:----2---2-----3-5-------2---2-----3-5--2------------------- X4
D:--0-------------------0------------------------------------
A:-----------------------------------------------------------
E:-----------------------------------------------------------
D                      F G          D                            F G
Justo ayer me dí cuenta,           que sólo es cuestión de plata
Mientras diez ventanillas cobran, una sola es la que paga.

e:-----------------------------------------------------------
B:------3---33------3-------3---33---------------------------
G:----2---2-----3-5-------2---2-----3-5--2------------------- X1
D:--0-------------------0------------------------------------
A:-----------------------------------------------------------
E:-----------------------------------------------------------
D                      F G  D
De como piensa la gente,    a veces la indiferencia
es tan grande que parecen,  seres de alguna otra tierra.

e:-----------------------------------------------------------
B:------3---33------3-------3---33---------------------------
G:----2---2-----3-5-------2---2-----3-5--2------------------- X1
D:--0-------------------0------------------------------------
A:-----------------------------------------------------------
E:-----------------------------------------------------------

Estribillo
    A
Y que me dicen de esa casa sola que se ve desde un avión
  Bb                           A7/4
Quizá en la soladad no haya dolor
       D  A7/4    D                          Intro
De pensar, oh, de pensar, de pensar... en nada,  oh en nada

solo de armónica
e:-----------------------------------------------------------
B:------3---33------3-------3---33---------------------------
G:----2---2-----3-5-------2---2-----3-5--2------------------- X4
D:--0-------------------0------------------------------------
A:-----------------------------------------------------------
E:-----------------------------------------------------------
En la oficina del trabajo, llegando el año nuevo
todos se pelean por ese maldito ascenso

e:-----------------------------------------------------------
B:------3---33------3-------3---33---------------------------
G:----2---2-----3-5-------2---2-----3-5--2------------------- X1
D:--0-------------------0------------------------------------
A:-----------------------------------------------------------
E:-----------------------------------------------------------
Con la cuota de frustración algunos viven de rosas
La ciudad se pone grande y cada vez mas peligrosa

e:-----------------------------------------------------------
B:------3---33------3-------3---33---------------------------
G:----2---2-----3-5-------2---2-----3-5--2------------------- X1
D:--0-------------------0------------------------------------
A:-----------------------------------------------------------
E:-----------------------------------------------------------
   
    A
Y que me dicen de esa casa sola que se ve desde un avión
  Bb                           A7/4
Quizá en la soladad no haya dolor
       D  A7/4    D                          Intro
De pensar, oh, de pensar, de pensar... en nada,  oh en nada

solo de armónica

 
Gracias espero que les guste. Por cualquier corrección mi mail es: 
eduardo_ferro@fullzero.com.ar

Le mando un saludo a todo el colegio Hipólito Vieytes

Fuente original ATAME [www.atame.org]
Colaborador original: Eduardo Morelli [eduardo_ferro@fullzero.com.ar]

Fuente: tusacordes.com