a b c d e f g h i j k l m n o p q r s t u v w x y z 0-9

Pensar En Nada

Los Piojos

			
Este tema me identifica mucho porque es lo único que hago
en las evaluaciones ?pensar en nada?. Se lo dedico a mi 
compañero Galvan que ese sí que no piensa en nada.

Riff y Intro

  RE                                FA        SOL
e|-----------------------------------------------|
B|-----------------------------------------------|
G|-----------------------------------------------|
D|--------------12-------12----12--------10---12-|
A|---------------------------------10h12---------|
E|-10-10-10-10------10---------------------------|

  RE                                FA        SOL
e|-----------------------------------------------|
B|-----------------------------------------------|
G|-----------------------------------------------|
D|--------------12-------12----12--------10------|
A|---------------------------------10h12-----12--|
E|-10-10-10-10------10---------------------------|

Esa es una forma, esta es la otrael acompañamiento es el mismo

e|-----------------------------------------------|
B|----------3-----3--3------1--3-----------------|
G|----------------------0h2----------------------|
D|--0-0-0-0----0---------------------------------|
A|-----------------------------------------------|
E|-----------------------------------------------|


e|-----------------------------------------------|
B|----------3-----3--3------1--------------------|
G|----------------------0h2----2-----------------|
D|--0-0-0-0----0---------------------------------|
A|-----------------------------------------------|
E|-----------------------------------------------|

Riff x8

Sobre riff:
Justo ayer me dí cuenta, que solo es cuestión de plata,
mientras dos ventanillas cobran, una sola es la que paga.

Riff x2

Y cómo piensa la gente, a veces la diferencia,
es tan grande que parecen, seres de alguna otra tierra

Riff x2

Est: 
LA
Y que me dicen de esa casa sola que se vé desde una avión,

SOLm					 LA
quizá en la soledad no halla dolor,

RE               LA         RE         LA    SOL   FA
de pensar, oh dolor, de pensar, de pensar,

Riff
en nada, en nada.

En la oficina del trabajo, llegando en año nuevo 
todos se pelean por, ese maldito ascenso.

Con la cuota de frustacion,algunos la viven de rosa
la ciudad se pone grande, cada ves mas peligrosa

Est.

----------------------------------------------------------------
Los acompañamientos de armónica son en REdespués del 1er est,
después siguien siempre el ritmo del riff. Si conocen el tema 
se les vá a hacer facil.
-----------------------------------------------------------------
Saludos a Cipolletti, al Cem 65, 1° 7°, chau
?La muerte esta tan segura de ganar que nos dá toda una vida
de ventaja?

Fuente original ATAME [www.atame.org]
Colaborador original: Jorge Nuñez [ktupqma2@intrada.com.ar]

Fuente: tusacordes.com