a b c d e f g h i j k l m n o p q r s t u v w x y z 0-9

Pensar En Nada

Los Piojos

			
intro despues de la 1° guitarra 

G--------------------------
D--------------------------       Intro 
A--5-55--55-5--------------       y todo el 
E-------------1-3----------       tema igual

G----------------------------------------------
D---------------------------------------------- Escribillo
A--------------------------5x14----5x14----
E--5x16--1x16--5x12----5x14----5x14-- 


G--------------------------  va despues del escribillo
D--------------------------      
A--5-55--55-5-------------- 
E-------------1-3----------


G-------------------------- 
D--------------------------    despues esto    
A--5-55--55-5--------------       
E-------------3-1----------


DESPUES HASTA EL FINAL IGUAL QUE EL PRINCIPIO

Esto es para el gil de mi hermano

Fuente original ATAME [www.atame.org]
Colaborador original: martin [martinsuarez666@hotmail.com]

Fuente: tusacordes.com