a b c d e f g h i j k l m n o p q r s t u v w x y z 0-9

Pega-pega

Los Piojos

			
INTRO

G|--------------------------------------------------------------| x 4
D|---------------------------------------------------3--3--3----|
A|-------------3-4-5-5-3-4-5-5-----------------3-4-5--5--5--5-3-|
E|-5-5-3-4-5-5-----------------3-4-5-5-3-4-5-5------------------|

ESTROFAS

G|-----------------------------|	
D|-----------------------------|	
A|-------------3-4-5-5-3-4-5-5-|
E|-5-5-3-4-5-5-----------------|


ESTRIBILLOS Uh nena, quiero verte...

G|---------------------|
D|---------------------|
A|---------------------|
E|-7 x32--5 x16--7 x32-| y sale a la base de INTRO y ESTROFAS

Fuente original ATAME [www.atame.org]
Colaborador original: FeDeBaJiS [fede_lineae@yahoo.com]

Fuente: tusacordes.com