a b c d e f g h i j k l m n o p q r s t u v w x y z 0-9

Pacífico

Los Piojos

			
E-----7-7-5-5-4------7-7-5-5-4-4-----9-9-7-7-5------9-9-7-7-5-5
A-5-5------------5-5--------------7-7-----------7-7-------------
D---------------------------------------------------------------
G---------------------------------------------------------------
B---------------------------------------------------------------
E---------------------------------------------------------------

E-------12-12-10-10-9--------12-12-10-10-9-9------7-7-5-5-4-----
A-10-10----------------10-10-----------------5-5----------------
D---------------------------------------------------------------
G---------------------------------------------------------------
B---------------------------------------------------------------
E---------------------------------------------------------------

E------7-7-5-5-4-4----------------------------------------------
A--5-5----------------------------------------------------------
D---------------------------------------------------------------
G---------------------------------------------------------------
B---------------------------------------------------------------
E---------------------------------------------------------------

Aca mi segundo post
Aclaracion: toco la bateria no la guitarra asiqe puede ser que le pifie en algun lado xq la saqe de oido

Fuente: Tusacordes