a b c d e f g h i j k l m n o p q r s t u v w x y z 0-9

Pacífico

Los Piojos

E
F#
A
C#m
G#m
F#m
D
G
G#
			
E
Ahora que estoy vacío
F#
ahora que no hay canción
A                      E
toda la luna cabe en mí.

E
Ahora que soy silbido
F#
de alguien que sale a andar
A                        E
veo otro cielo alrrededor.

C#m
Todos esos deseos
G#m
de noche fría y de alcohol
A                        E
hoy te los quiero regalar.

C#m
El agua me salpica
G#m
el fuego es realidad
A                   F#m      A 
me gustaba tanto tu voz.

Puente: [E F#m  A E]
E----------------------------------------------------------
B----5-5-3-3-2-----5-5-3-3-2---7-7-5-5-4-----7-7-5-5-4-----
G-2------------2-2-----------4-----------4-4-----------4-6-
D----------------------------------------------------------
A----------------------------------------------------------
E----------------------------------------------------------

--9-9-7-7-6-----9-9-7-7-6-----7-7-5-5-4-----7--7-5-5-4--
-------------6-6-----------6-4-----------4-4------------
--------------------------------------------------------
--------------------------------------------------------
--------------------------------------------------------
--------------------------------------------------------

E
Dejando que suceda
F#
es más fácil así
A                        E
el cuerpo bien sabe flotar.

E
Distintas las miradas
F#m
y tu contestación
A                              E
muestra qué inútil fue mi hablar.

C#m
La mente está vacía
G#m
el cuerpo quiere girar
A                       D      A 
y en la pupila aquel dolor.


A
Oh, Oh,
E
voy a llevarte en mí
G
y ahora sé muy bien,
D
que me llevarás
A
hasta donde estés,
G
adonde vayas
E
un tatuaje azul,
G
en la voz azul.


Puente + [E F#m A]
E----0---------------0---0---------------
B--0---4-5--7-5-4-2----2---2--5----------
G--------------------------------1-------
D----------------------------------------
A----------------------------------------
E----------------------------------------
C#m
Algo tiembla al oído
G#
sombra de un susurro sin voz
A                  D       A 
la última oportunidad.


Termina: A E G D

Fuente: tusacordes.com