a b c d e f g h i j k l m n o p q r s t u v w x y z 0-9

Olvidate

Los Piojos

			
Intro		 
|-6-3----------|
|-----6--------|
|------6-------|
|-------5-4-2--|

Estrofas
|-----------------------------------------------------|
|---------------------------------------------------4-|
|-2-2--2----2-4--2-2-2-------2-2--2----2-4--2-2-2-----|
|-------2-4------------22----------2-4------------2---|

Y hace bien... dos veces
|--------------------------------------------------------------------|
|-----------4--------------------------------------------------------|
|-------4-4----------4-4---------8-8--------8-8--------2-2--------2-2|
|-2-2-2--------2-2-2-----2/6-6-6------6-6-6------0-0-0------0-0-0----|

-------3-3--------3-3------| En esta parte en realidad lo hace en la
-1-1-1------1-1-1----------| 5ta cuerda, pero suena igual en uno de 4
---------------------------|
---------------------------|

Cualquier cosa me escriben a marcelloelo@hotmail.com, por alguna duda o consulta.

Fuente original ATAME [www.atame.org]
Colaborador original: Francisco [marcelloelo@hotmail.com]

Fuente: tusacordes.com