a b c d e f g h i j k l m n o p q r s t u v w x y z 0-9

Olvidate (ya Ves)

Los Piojos

			
intro

G.------------------------------------
D.------------------------------------
A.--4--2------------------------------
E.--------6--5--4--2-2---------------- aca hay un silencio..

Esta es la base de bajo ke se repite durante casi todo el tema en B7. Va desde 'ya ves, eso te pido..' asta '..de mi casa' 

G.--------------------------------------
D.--------------------------------------
A.--2-2--22--------2--4--2-2--2---------
E.-----------2--5---------------2-2-----
                                         
G.--------------------------------------
D.-------------------------------4-4----
A.--2-2--22--------2--4--2-2--2---------
E.-----------2--5-----------------------

Despues en la parte ke cambia a 'Me hace bieeen' los acordes son F# Am# E Am# y la base de bajo  no estoy muy seguro  es asi:

   F#                       Am#
G.--------------------------------------------------------------
D.-------------5------------------------------------------------
A.-------4--5----------4-4------8--8------8--8------------------
E.--2-2-----------2-2--------6-6--------6-6---------------------

   E                      Am#
G.--------------------------------------------------------------
D.--------------------------------------------------------------
A.-------3--3------3--3---------8--8------8--8------------------
E.--0-0---------0-0----------6-6--------6-6---------------------
 
Esta parte se hace 2 veces y despues vuelve a la primer parte en B7 asta ke ciro dice 'yo me estoy cansando y digo..' ay el bajo hace un silencio y entra devuelta asi:

G.------------------------------------
D.------------------------------------  
A.--2--2--2-22------2--4--2-2--------- 
E.-------------2--5-------------------
    
 Aca micky hace slap con algunas notas para darle mas color..pero si lo haces asi nomas keda bien..

Fuente: tusacordes.com