a b c d e f g h i j k l m n o p q r s t u v w x y z 0-9

Muy Despacito

Los Piojos

			
El bajo entra después del primer estribillo

Verso:
G|-----------------------------|x4
D|-----------------------------|
A|-55-55---------33-33--55-55--|
E|--------55-55----------------|

Coro:
G|--------------------------------|
D|-------------------4-7----------|
A|------3--55-55-5----------3-|
E|-5--------------------5-----|

Verso:
G|-----------------------------|hasta el final
D|-----------------------------|
A|-55-55---------33-33--55-55--|
E|--------55-55----------------|

Escuchá la canción para saber el ritmo

Fuente original ATAME [www.atame.org]
Colaborador original: Sebastián Vidondo [rojoamargodelsiglo@yahoo.com.ar]

Fuente: tusacordes.com