a b c d e f g h i j k l m n o p q r s t u v w x y z 0-9

Motumbo

Los Piojos

			
Intro y Estribillo
G-|------------------------------------------------------------|
D-|-------------------15----------------12----------------7----|
A-|-12-12-14-12------------------------------12----12---7---7--|
E-|-------------15-13----13-15-13-12-10---10----10----5--------|

Verso
G-|----------------|
D-|---2-0-----2-0--|
A-|-0-----3-0------|
E-|----------------|

La parte que dice nada para hacer...
G-|--------------------------|
D-|--------------------------|
A-|-------5x4-3x4--------|
E-|-2x4-------------3x4--|

G-|--------------------------|
D-|--------------------------|
A-|-------5x4-3x4-2x8--|
E-|-2x4--------------------|

Despues del primer puente viene una
parte que el bajo acompaña a la guitarra antes del 2do. estribillo
G-|------------------|
D-|---2-0------------|
A-|-0-----3----------|
E-|---------5-0------|

Fuente original ATAME [www.atame.org]
Colaborador original: Juan P. Torres [juanptorres@hotmail.com]

Fuente: tusacordes.com