a b c d e f g h i j k l m n o p q r s t u v w x y z 0-9

Motumbo

Los Piojos

			
Motumbo-Los piojos-Maquina de sangre 2003

Intro-Bajo
1---------------------------------------------------------------------------------  /
2-------------------------15----------------------12--------------------------7---  /RIFF 1
3-12--12---14--12-----------------------------------------12-------12-------7---7-  /
4------------------15--13-----13--15--13--12--10------10------10----------5-------  /
 



El riff de guitarra de la intro es igual pero a todos los numeros restenles 12 y
les va a quedar mas abajo.

En los versos el bajo hace: 

1--------------------------- /
2----2--0---------2--0------ /RIFF 2
3-0--------3---0------------ /
4--------------------------- /

La viola durante la primer parte del 
verso hace sonar las ultimas tres cuerdas de A de espacio 5

 
1--5---------------5-------- /
2----5---7---5--------5-7--- /
3--------------------------- /RIFF 3
4--------------------------- /
5--------------------------- /
6--------------------------- /




RIFF 2 en los versos

Rompe como el tiempo a los hombres 
                                    
Rompe que esto ya no va más        
                                    
Rompe como el sol a la noche       
                                    
Rompe que no puede aguantar.

RIFF 1 

RIFF 2 hace el bajo
RIFF 3 hace la 1er guitarra y 
la segunda hace lo mismo que en el verso anterior

Rompe si ya no estás creyendo

y que yo no puedo parar

Rompe lo que está hecho pedazos

y que no te deja pasar.

 
RIFF 1 bajo y 1ra guitarra la segunda hace los acordes

   A                F
Estas sintiendo? sentilo bien

   D                     A
estas sintiendo? se siente bien?
 
podés sentirlo? sentilo bien

ahi va hasta el fondo nena, voy voy voy voy

 
  F#5   D            C            G     
Nada para hacer, solo un viejo rock

  F#5     D    C       B 
ya relajate, vengo yo...

Aca en la inter , 
el bajo hace el RIFF 2 y la viola el RIFF 3
Despues la guitarra y el bajo hacen

1--------------------------
2---------------------------
3---------------------------
4-----2---0-----------------
5--0----------3--0---------
6--------------------0------
                                        

Rommel avanzado sus panzer

y la guardia de Napoleón

Roma con su mejor falange

Alejandro y sus Heitairoi

Rosas contra los unitarios

Shaka Zulu devorador

traigo nena toda esa fuerza

para romper todo tu amor

 

Estas sintiendo? sentilo bien...

 



Transcripccion por Francisco Fernandez Esnaola 
cualquier duda o consulta fesnaola87@hotmail.com

AGUANTE LOS PIOJOS !!!!! 
YA NOS ACOSTUMBRAMOS A LLENAR RIVER

Fuente original ATAME [www.atame.org]
Colaborador original: Francisco Fernandez Esnaola [fesnaola87@hotmail.com]

Fuente: tusacordes.com