a b c d e f g h i j k l m n o p q r s t u v w x y z 0-9

Morella

Los Piojos

			
Intro:

e---------------------------------------------
B-----------15--------------------------------
G-13--14/16-----14~~~13-----------------------
D-----------------------14--------------------
A--------------------------14-12--11h12p11----
E------------------------------------------12-

e----------------------------14-12-11~~~------
B----------------11h12-12/14-------------12---
G-------------11----------------------------11
D---------------------------------------------
A---------------------------------------------
E-10/12--14-----------------------------------

e----------------------------------------------------------    
B----------------------------15----------------------------
G-9-8h9p8----------13--14/16----14---13-13h14p13-----------      
D---------9-7--9---------------------------------14-12--14-      
A----------------------------------------------------------
E----------------------------------------------------------


  E                                            F#
e--------------------------------------------------
B--------------------------------------------------
G--------------------------------------------------
D--------------11------------13h14-11--------------
A-11--11----------12-11---11----------14-11h12h13--
E--------12-14-------------------------------------


  F#                                        E

e------------------------------------------------
B------------------------------------------------
G------------------------------------------------
D----13h14--------------------13h14--------------
A-13-------11/14-11-12-13~-13-------11/14-13-11~-
E------------------------------------------------


  E                                       F#
e-----------------------------------------------
B-----------------------------------------------
G-----------------------------------------------
D-----------11------------13h14-11--------------
A--11----------12-11---11----------14-11h12h13--
E-----12-14-------------------------------------


 F#                                       

e-------------------------
B-------------------------
G-------------------------
D----13h14----------------
A-13-------11/14-11-12-13-
E-------------------------



Referencias:

h=hammer on 
p=pull off
/=slide
~=vibrato

Fuente original ATAME [www.atame.org]
Colaborador original: Daniel Schteingart [schteingart@velocom.com.ar]

Fuente: tusacordes.com