a b c d e f g h i j k l m n o p q r s t u v w x y z 0-9

Media Caña

Los Piojos

			
intro:
 
     riff 1           riff 2    riff 3    riff 4
 -----------------¬----------¬---------¬-----------------
 -----------------¬----------¬---------¬-----------------
 -----------------¬----------¬--0-0--0-¬-----------------
 --2-2--2--2-2--2-¬x2--3-3--3¬--0-0--0-¬--2-2--2--2-3--3-
 --2-2--2--2-2--2-¬----3-3--3¬---------¬--2-3--3--2-3--3-
 -----------------¬----------¬---------¬-----------------

riff 1
Media caña en el colchon
riff 1
Pata dura y corazon
riff 2          riff 3        riff 1
Sos enganche, ya no hay goleador

riff 1
Sentir el viento correr
riff 1
Pasto fresco amanecer
riff 2      riff 3     riff 1
Necesito volar otra  vez.


Cm#                          Asus4
    Y la distancia te hizo buena
Cm#                               Asus4
    El sol de asoma y la noche en vela
Cm#                                     F#   Asus4
    Y ois los chicos para la escuela

         

-7--6--4-----4--6--7---7--6--4-----4--5--7---
----------7---------------------7------------
---------------------------------------------
---------------------------------------------
---------------------------------------------
---------------------------------------------



E
Una foto sin color
No me tires por favor
F             Gm            E 
Soy lo ultimo que queda de mi.

E
En la cuarta dimension
La del más profundo amor 
F            Gm            E
Te agradezco por cuidarme asi.

Cm#                             Asus4
   Guardando el tiempo en cajas viejas
Cm#                         Asus4
   De tinta y humo torpes madejas

Cm#                           Asus4      F#   Asus4
   Vas devolviendo la vida en gotas



-------------------------------------------------
----------------------1--2--4--6--4--2--1--2-----
-4--2--1--4--2--1--4-----------------------------
-------------------------------------------------
-------------------------------------------------
-------------------------------------------------



--0-------0------6--7--9--11--9--7--6--7-
----2-0-----2-0--------------------------
-----------------------------------------
-----------------------------------------
-----------------------------------------
-----------------------------------------


G
Siga, siga, semental 
Que la cosa no va mal
G#        Bb        G       
Esto debe ser estar feliz.
G
Una copa y un puñal
Nada más elemental
G#            Bb              G 
Que seguir, seguir, clavando amor.
Em                                  C
  Pero en tu hogar no hay luces prendidas
Em                             C
  Cuando volves la olla esta vacia
Em                          C      A    C        
  Todos los sueños cargan heridas,    sabes.

G                           G#  Bb   G
AH AH AH AH AH AH AH

acordes:
Asus4   G      Em     Bb     G#     F#     F      E      C  
-0--  --3--  --0--  --1--  --4--  --2--  --1--  --0--  --0-- 
-3--  --0--  --0--  --3--  --4--  --2--  --1--  --0--  --1-- 
-2--  --0--  --0--  --3--  --5--  --3--  --2--  --1--  --0-- 
-2--  --0--  --2--  --3--  --6--  --4--  --3--  --2--  --2-- 
-0--  --2--  --2--  --1--  --6--  --4--  --3--  --2--  --3-- 
----  --3--  --0--  -----  --4--  --2--  --1--  -----  -----

Fuente: tusacordes.com