a b c d e f g h i j k l m n o p q r s t u v w x y z 0-9

Marado

Los Piojos

			
Intro
G|--------|x4
D|--------|
A|--------|
E|-5x24-|

Verso
G|------------------|x8
D|------------------|
A|--------1/31/31-|
E|-5x16-----------|

Coro
G|---------------------|x4
D|---------------------|
A|---------1-3-1-------|
E|-5555555-------3-1-3-|

Intro
G|--------|x4
D|--------|
A|--------|
E|-5x24-|

Verso
G|------------------|x8
D|------------------|
A|--------1/31/31-|
E|-5x16-----------|

Coro
G|---------------------|x4
D|---------------------|
A|---------1-3-1-------|
E|-5555555-------3-1-3-|

Puente
G|---------------------------|
D|---------------------------|
A|-7--3--7--3----7-|
E|---------------------------|

Intro
G|--------|x4
D|--------|
A|--------|
E|-5x24-|

Verso
G|------------------|x8
D|------------------|
A|--------1/31/31-|
E|-5x16-----------|

Coro
G|---------------------|x4
D|---------------------|
A|---------1-3-1-------|
E|-5555555-------3-1-3-|

Puente
G|---------------------------|
D|---------------------------|
A|-7--3--7--3----7-|
E|---------------------------|

Coro **Hasta el Final**
G|---------------------|
D|---------------------|
A|---------1-3-1-------|
E|-5555555-------3-1-3-|

Escuchá la canción para saber el ritmo

Fuente original ATAME [www.atame.org]
Colaborador original: Sebastián Vidondo [rojoamargodelsiglo@yahoo.com.ar]

Fuente: tusacordes.com