a b c d e f g h i j k l m n o p q r s t u v w x y z 0-9

Manjar

Los Piojos

			
A7

--0-------------------------------------
--2-------------------------------------
--0-------------------------------------
--2-------------------------------------
----------------------------------------
----------------------------------------

A7*

--3-------------------------------------
--2-------------------------------------
--0-------------------------------------
--2-------------------------------------
----------------------------------------
----------------------------------------

A7 Inv.

--2-------------------------------------
--2-------------------------------------
--0-------------------------------------
--2-------------------------------------
----------------------------------------
----------------------------------------


INTRO

A7* - A7 Inv. - A7




  A7
Esta noche nena tarde
  A7
yo preparo un manjar
  A7
la receta es secreta
  A7
y no podes faltar.



  A7
Piernas van abiertas,
  A7
fuego, está caliente el vapor
  A7
en el rabo una copa
  A7
y otra mas de licor.


INTRO


  A7
Esta cuerda en los tobillos
  A7
y en las muñecas, ves
  A7
vas a relajarte
  A7
para que yo pueda, hacer.



  A
Cae el aceite
  C
resbalando en vos
  D
cae de aceite
  F
toda para vos.
  A
Llena de aceite
  C
resbalando así
  D
llena de aceite
  F
toda para mí.



  C
Oh oh oh,
  C                   F   Bb
a punto estás mi amor,
 Bb
nunca ví plato mejor.



  C
Oh oh oh,
  C                   F   Bb
a punto estás mi amor,
  Bb
jugoso tu corazón.



Oh oh oh,
a punto ya lo ves,
tierna y tan dura a la vez.


Oh oh oh,
a punto estás mi amor,
nunca ví plato mejor.


INTRO


  A7
Se me hace agua la boca ves
  A7
veo llorar tus ojos de placer...



  A    C    D   F
Cae el aceite?



  C
Oh oh oh,
  C                   F    Bb
a punto estás mi amor?




          C
Que te voy probando
          C
que me vas sintiendo
          F
que te voy besando
          Bb
que me vas mordiendo
          C
que te voy cortando
             C
que me estás haciendo
          F
que me vas probando
        Bb
que te voy sirviendo. bis

Fuente: tusacordes.com