a b c d e f g h i j k l m n o p q r s t u v w x y z 0-9

Los Mocosos

Los Piojos

			
INTRO 
(C-Eb-Bb-C)

   C             Eb              Bb            C           x2
e|----------------------------------------------------------|
B|----------------------------------------------------------|
G|-------0---------0---3---0------------------------0-0-----|
D|---2-----2-----1---1---1---1-----0---3-0-------2------2-2-|
A|-3---3-----3-------------------1---1-----1---3---3--------|
E|----------------------------------------------------------| 

RIFF 
   En la tierra del ruido
y la prostitución 
Y las calles mugrientas 
  
Con mercados hambrientos 
que perforan la estación 
como largas culebras 
  
Los mocosos se trepan
y se van hacia el sol
en los trenes de piedra x2

[C-Eb-Bb-C] x2

   C             Eb            Bb             C
e|------------------------------------------------------|
B|---6-5-----------11-10-8-------4--3-----------6-5-----|
G|-5-----7-5---5/8---------8---3------5-3---3/5-----7-5-|
D|------------------------------------------------------|
A|------------------------------------------------------|
E|------------------------------------------------------|

      C
En la tierra del vino
     Eb           Bb
Y la drogadicción
              C
Y los hijos negados
                       Eb           Bb
Policías mendigan al peor infractor
              C
Y le besan la mano

Los mocosos se trepan
     Eb               Bb
y se van hacia el sol
               C
En bolsitas de Nylon

Los mocosos se trepan
     Eb               Bb
y se van hacia el sol
               C
En bolsitas de llanto. 
  
Bb      F
  Na na no 
      Eb
No me dejes olvidar esta canción. 
Bb    F 
  Na na no 
      Eb                              
No me dejes olvidarla bis  Eb   D  C

INTRO

RIFF  
   El pequeño Big Beng
Cuenta piedras rojizas
Como gotas de sangre
      C                 Eb          Bb
Me pregunto por que esa gente no ve
                    C
Detrás de los ventanales

Los mocosos se trepan
     Eb               Bb
y se van hacia el sol
               C
A buscar a sus madres
Los mocosos se trepan
     Eb               Bb
y se van hacia el sol
              C
A buscar a sus... mamás

SOLO DE VIOLA
(C-Eb-Bb-C) x4
  
C         Eb    Bb
  Creíste estar
        C
En su lugar x3

C       Eb    Bb
  Vas a estar
        C
en su lugar
  
En la tierra del ruido
y la prostitución 
Y las calles mugrientas 
Con mercados hambrientos 
Que perforan la estación 
Como largas culebras 

Los mocosos se trepan
y se van hacia el sol
En los trenes de piedra x2

Bb      F
  Na na no 
      Eb
No me dejes olvidar esta canción. 
Bb    F 
  Na na no 
      Eb                              
No me dejes olvidarla bis

Na.. Na.. Na.. x4

FIN (Eb-D-C)

Esta es la versión correcta y completa de la canción.
Cualquier duda o comentario: caffarelli_julian@yahoo.com.ar

Fuente original ATAME [www.atame.org]
Colaborador original: Julian Caffarelli [caffarelli_julian@yahoo.com]

Fuente: tusacordes.com