a b c d e f g h i j k l m n o p q r s t u v w x y z 0-9

Los Mocosos

Los Piojos

			
Intro
G|---------------------|x2
D|---------------------|
A|---------------------|
E|-2--5--0--2--|

Verso 1
G|-----------------------------|x3
D|-----------------------------|
A|-----------------------------|
E|-2-2--5-5--0-0--2-2--|

Verso 2
G|--------------------------|x6
D|--------------------------|
A|--------------------------|
E|-2x8-5x8-0x8-2x8--|

Puente Nana no, no me dejes olvidar esta canción...
G|-----------------------------------------|x4
D|-----------------------------------------|
A|-----------------------------------------|
E|-2-2-2--0-2-5-5-5--5-2-0-0-0--0-5-2-2-2--|

Verso 3
G|---------------------|x2
D|---------------------|
A|---------------------|
E|-2--5--0--2--|

Verso 2 muchas veces, hasta el puente, que vendría a ser el Final
G|--------------------------|
D|--------------------------|
A|--------------------------|
E|-2x8-5x8-0x8-2x8--|

Puente Nana no, no me dejes olvidar esta canción...
G|-----------------------------------------|x8
D|-----------------------------------------|
A|-----------------------------------------|
E|-2-2-2--0-2-5-5-5--5-2-0-0-0--0-5-2-2-2--|

Escuchá la canción para saber el ritmo

Fuente original ATAME [www.atame.org]
Colaborador original: Sebastián Vidondo [rojoamargodelsiglo@yahoo.com.ar]

Fuente: tusacordes.com