a b c d e f g h i j k l m n o p q r s t u v w x y z 0-9

Los Buenos Tiempos

Los Piojos

			
Intro
G|-----------------------|-----------------------------|
D|-----------------------|-----------------------------|
A|---4-5-4------6-7-6----|-5-57-7-88-5787---764-764----|
E|-55-----5-6-77-----7-6-|-------------------------5/7-|
 |     CUATRO   Veces    |       DOS     Veces         |

Verso **2Veces**
G|---------------------|-------------|
D|---------------------|-------------|
A|--4------------------|--6---8------|
E|-5-5-7--22-2-34-35-|-7-7-9-9-2-|
 |     SIETE  Veces    |  DOS  Veces |

Coro
G|------------------|----------------------------------------------|
D|---6-6-7----------|------------8-8-9----4-4-5----7-7-8----6-6-7--|
A|-77-7-7-7--4-4-5--|---8-8-9--99-9-9-9-55-5-5-5-88-8-8-8-77-7-7-7-|
E|---------55-5-5-5-|-99-9-9-9-------------------------------------|
 |   DOS   Veces    |

Puente 1
G|-----------------------|x2
D|-----------------------|
A|---4-5-4------6-7-6----|
E|-55-----5-6-77-----7-6-|

Verso **2Veces**
G|---------------------|-------------|
D|---------------------|-------------|
A|--4------------------|--6---8------|
E|-5-5-7--22-2-34-35-|-7-7-9-9-2-|
 |     SIETE  Veces    |  DOS  Veces |

Coro
G|------------------|----------------------------------------------|
D|---6-6-7----------|------------8-8-9----4-4-5----7-7-8----6-6-7--|
A|-77-7-7-7--4-4-5--|---8-8-9--99-9-9-9-55-5-5-5-88-8-8-8-77-7-7-7-|
E|---------55-5-5-5-|-99-9-9-9-------------------------------------|
 |   DOS   Veces    |

Puente 1
G|-----------------------|x2
D|-----------------------|
A|---4-5-4------6-7-6----|
E|-55-----5-6-77-----7-6-|

Puente 2
G|-----------------------------|x2
D|-----------------------------|
A|-5-57-7-88-5787---764-764----|
E|-------------------------5/7-|

Solo de Guitarra
G|----------------------|x4
D|----------------------|
A|---4------------------|
E|-55-5-7--22-2-34-35-|

Coro
G|------------------|----------------------------------------------|
D|---6-6-7----------|------------8-8-9----4-4-5----7-7-8----6-6-7--|
A|-77-7-7-7--4-4-5--|---8-8-9--99-9-9-9-55-5-5-5-88-8-8-8-77-7-7-7-|
E|---------55-5-5-5-|-99-9-9-9-------------------------------------|
 |   DOS   Veces    |

Puente 1
G|-----------------------|x2
D|-----------------------|
A|---4-5-4------6-7-6----|
E|-55-----5-6-77-----7-6-|

Escuchá la canción para saber el ritmo

Fuente original ATAME [www.atame.org]
Colaborador original: Sebastián Vidondo [rojoamargodelsiglo@yahoo.com.ar]

Fuente: tusacordes.com