a b c d e f g h i j k l m n o p q r s t u v w x y z 0-9

Llevatelo

Los Piojos

			
Riff 1:

e------------------------------
B------------------------------
G-2--2--2--2--2--2---2---------    Mantener el último acorde A5 hasta
D-2--2--2--2--2--2---2---------      que empiece de vuelta el riff
A-0--3--0-----0--3---0---------
E----------3-------------------


Riff 2: 

e------------------------------
B--------------------3---------
G-2--2--2--2--2--2---2---------    
D-2--2--2--2--2--2---0---------     
A-0--3--0-----0--3-------------
E----------3-------------------

Riff 3:

e-----------------------------
B-----------------------------
G-2--2--2--2--2--2---2--------    
D-2--2--2--2--2--2---2--------     
A-0-----0--3--0------0--------
E----3-----------3------------

Riff 4:


e---------------------------
B---------------------------
G-2--2--2--2--2-------------    
D-2--2--2--2--2-------------     
A-0--3--0-----0-------------
E----------3----------------


Intro: Riff 1 x4

       
       Riff 1
Estoy así, tan triste ves

       Riff 2                Riff 3
estoy atado, sobre tu riel. 

       Riff 1
Bien, ella es veloz,

       Riff 2                 Riff 3
no tiene tiempo, para los dos. 

No estoy bien, puede ser
pero si me detengo 
veré mi cadáver bajo mis pies. 
Y digo fuera de aquí
fuera dolor
no quiero tenerte
llevátelo.

C  G             Riff 3 
Hermana llevátelo

C  G             A
Hermana llevátelo


Solo: Base en Riff 4 y A5


El quería venir
mi última función
nunca me había visto
el era un amigo era mi profesor
Nunca estuvo aquí
el nunca llegó
tomó una gillette, se cortó una vena
y me dejó.

C   G            Riff 3
Hermana llevátelo
C   G            A
Hermana llevátelo
F
Baila la danza del vientre
D
quita esa espina 
A
en mi frente.


Solo de armónica: Base en Riff 1


A5
Mucho dinero, mucha suciedad
        D5
mucha basura de traje
         A5
en esta ciudad.

¿Y mi nena, dónde está? 
tienen tantas mentiras
tanta cocaína
tanta libertad
y digo fuera de aquí
y digo fuera dolor
no quiero tenerte
llevátelo
Hermana llevátelo
Hermana llevátelo

Outro: 

C - G - Asus4

Fuente original ATAME [www.atame.org]
Colaborador original: Daniel Schteingart [schteingart@velocom.com.ar]

Fuente: tusacordes.com