a b c d e f g h i j k l m n o p q r s t u v w x y z 0-9

Langostas

Los Piojos

			
Riff 1
-------2-----------2-----3-----------3-----------||
-----1---1-------1---1-----1-------1---1-------1-||
---2-------2---2-------2-----2---2-------2---2---||
-0-----------0-----------------0-----------0-----||
-------------------------------------------------||
-------------------------------------------------||
 D7 		 D7		D7/4        D7/4                        


Riff 2
-------0-----------3-----------2-----------2-----||
-----3---3-------3---3-------1---1-------1---1---||
---0-------0---0-------0---2-------2---2-------2-||
-2-----------0-----------0-----------0-----------||
-------------------------------------------------||
-------------------------------------------------||
 C9          G           D7          D7                                              


Riff 3
-------0-----------0-----------2-----------2-----||
-----1---1-------3---3-------1---1-------1---1---||
---2-------2---0-------0---2-------2---2-------2-||
-3-----------2-----------0-----------0-----------||
-------------------------------------------------||
-------------------------------------------------||
 F7          C9          D7          D7


Riff 4
-----------------|-------------||
-----------------|-------------||
-----------------|---4b5r4p2---||
-2-2-----2-----2-|-2---------4-||
-0-0-3b4---3b4-0-|-0-----------||
-----------------|-------------||
                                                                              

Intro: Riff 1 x 2

Riff 1
Miles de langostas
Vuelan hacia acá
Riff 1
Las nubes mas negras
De la tempestad
Riff 1
La niña morena
No quiere mirar
Riff 1
Arrasando vienen
El dorado mar.

Riff 2
      Oh oh oh oh oh 
Riff 3
      Oh oh oh oh oh

Riff 1 x 2 o punteo sobre D

D o Riff 1
Caballos brillantes
Ojos de metal
D o Riff 1
Negra calesita
Zumbando al pasar.
D o Riff 1
En su pelo suave
Clavandose están
D o Riff 1
Una risa grave
Tras el ventanal

Oh oh oh oh oh X 2

Riff 4	   Riff 4
Donde estabas, sobre que sillón
Riff 4
Ajustando
Riff 4
Tu certero disparo al mundo.

Riff 1 x 2 o punteo sobre D

Miles de langostas
Vuelan hacia acá
Ráfagas de viento.
Vienen a avisar.
Caballos brillantes
Ojos sin cerrar
La niña morena
No quiere mirar

Oh oh oh oh oh X 2

Donde estabas, sobre que sillón
Ajustando, infalible,
Tu certero disparo al mundo.

C#m - G - F#m - E X 2

Donde estabas, sobre que sillón
Ajustando, infalible,
Tu certero disparo al mundo.

Riff 1 x 2 o punteo sobre D

Roja calesita
Girar sin parar
Sortijas humeantes
Y otra vuelta mas.
Donde estabas papi
Papi, donde estás
Donde estabas papi
Papi, donde estás
Papi, donde estás
Papi?

Fuente original ATAME [www.atame.org]
Colaborador original: Goncho87 [grafuls@yahoo.com.ar]

Fuente: tusacordes.com