a b c d e f g h i j k l m n o p q r s t u v w x y z 0-9

Hoy Es Hoy

Los Piojos

			
Intro:
Riff1
   A5
e|-----------------------------------|
b|-----------------------------------|
g|-----------------------------------|
d|-----------------------------------|
a|-7--7--9---10--9---7--7--9---10--9-|
E|-5--5--5---5---5---5--5--5---5---5-|
 Riff 2
E5
e|---------------------------|
b|---------------------------|
g|---------------------------|
d|---------------------------|
a|-2--2--4--5-4--2--2--4-5--4|
E|-0--0--0--0--0--0--0-0-0--0|
Riff 3
 G5
e|------------------------------------|
b|------------------------------------|
g|------------------------------------|
d|------------------------------------|
a|-5--5--7-5--5--7--5-5-7-5-5-7-------|
E|-3--3--3--3--3--3--3-3---3---3-3-3--|
Riff4
F#5
e|------------------------------|
b|------------------------------|
g|------------------------------|
d|------------------------------|
a|-4--4--6--4-4---6--/--7-7-7--7|
E|-2--2--2--2-2---2--/--5-5-5--5|


A
Nadie va a sacarte nunca de donde estás,
E
a nadie le importa saber cuál es tu verdad,
G
podes quemar tu cabeza en el dolor del placer,
F#                                             A
que al final es lo mismo cuando no podés volver.
A
Los cerdos no aprenden, sólo van a especular,
E
con millones de pibes un futuro real
G
miraban para otro lado se caia el camison
F#                                         A
y ahora vienen por el agua : "hello".


Estribilo:

A           E
Hoy es hoy , nena es hoy
G           A              F#    A
como si estuvieramos en guerra

bis

A-E-G-F#

Asi que si tenés  cerebro y fuerza de voluntad
y tenés un sueño y ganas de pelear
Tu mente es tu arma, no la desactives
no le hagas el juego fácil a los que quieren volver.
Vos que podés hacerlo, yo te llamo a la acción.
soldado que lucha con la imaginación
Que la fisura sea cuando hay que fisurar.
Pero el tiempo se acaba y no queda más que hablar.


Estribillo

Riff 1

riff 1
Tu arma es tu mente
riff 2
Tu arma es tu mente
riff 3
Tu arma es tu mente
riff 4                           A
Tu arma es tu mente
bis

A
Tu arma es tu mente, y tu voluntad
E
Tu arma es tu mente, y tu voluntad
G
Tu arma es tu mente, y tu voluntad
F#
Tu arma es tu mente, y tu voluntad

A
tu voluntad
E
tu voluntad
G
tu voluntad
F#
tu voluntad

Estribillo bis

Solo de organo A E G F#

A
La paz no existe, la paz no existe
E
La paz no existe, la paz no existe
G
La paz no existe, la paz no existe
F#                   A
La paz asi no existe

final: A E G F#Fuente: Tus acordes