a b c d e f g h i j k l m n o p q r s t u v w x y z 0-9

Guadalupe

Los Piojos

			
Los Piojos
Guadalupe


Intro y versos
Repite muchas veces hasta llegar al estribillo

G|-----9---------------------9-----------------|
D|-------9/12--11--------------9/12--11--------|
A|-7---------------12----7--------------------|
E|---------------------------------------------|


Estribillo
Ehe, aha, ehe aha...
Lo hace varias veces

G|--------------------------|
D|--------------------------|
A|--------------------------|
E|--0--3-0--3-5--3-5--------|


Verso 
repite el mismo riff que antes


Estribillo 
repite lo mismo que antes


Puente

G|--------------------------------------|
D|--------------------------------------|
A|--3--5--------------------------------|
E|---------1--3----3-3-3-3-3-3-3-3------|

|------------------------|
|------------------------|
|------------5--6--------|
|--5-5-5-5---------------|


Verso 
sigue repitiendo el mismo riff


Estribillo 
repite lo mismo que el estribillo de antes


Verso 
en este verso sigue con lo mismo que tocaba en el estribillo


Estribillo 
repite lo mismo que el estribillo de antes


Puente 
hace el mismo puente que antes y termina



Bueno espero que les sea util, cualquier comentario queja o lo que sea manden un mail
a jovenpordiosero@hotmail.com, suerte!

Fuente original ATAME [www.atame.org]
Colaborador original: Ale_doors [jovenpordiosero@hotmail.com]

Fuente: tusacordes.com