a b c d e f g h i j k l m n o p q r s t u v w x y z 0-9

Fantasma

Los Piojos

			
Intro: Riff A

Riff A
Voy cruzando las paredes de tu casa,
yo se bien lo que pensas, lo que te pasa,
vos creiste ver mi sombra en el espejo
vengo para amarte desde un mundo viejo.

Riff A
Tan despacio estas sacandote la ropa,
la tristeza esta cambiandose de copa,
Riff D
ya no llames ni a ese cura ni a esa bruja arpia,
Riff A
porque en esta casa siempre, seras mia.

Yo se lo que paso,
por eso estoy aca,
solo un fantasma soy.

Riff A
Me emborracho con la esencia de tus vinos
y comparto tus cigarros asesinos.
Riff D
Bailo cuando estas bailando entre la gente.
Riff A
El mundo es tu mundo y solo esta en tu mente.

Yo se lo que paso,
por eso estoy aca,
solo un fantasma soy.

Che, che, decime por que 
con un fantasma solo lo haces,
Che, che, decime por que 
con un fantasma solo lo haces.

Solo de Armonica [Riff A]

Che, che, decime por que 
con un fantasma solo lo haces,
Che, che, decime por que 
estamos juntos hoy otra vez.

Yo soy el espiritu que ronda en tu casa,
yo se lo que pensas y lo que te pasa

Riff A [2]
Che, che,decime por que 
con un fantasma solo lo haces.
Che, che,decime por que 
con un fantasma solo lo haces.
Che, che,decime por que 
con un fantasma solo lo haces.

Che, che, decime por que 
con un fantasma solo lo haces.


  Riff A
e|--------------------------|
B|--------------------------|
G|--------------------------|
D|-2-2-2---2-2-2-2-2---2----|
A|-0-0-3h4-3-0-0-0-3h4-3h4--|
E|--------------------------|

  Riff D
e|--------------------------| 
B|--------------------------| 
G|-2-2-2---2-2-2-2-2---2----|
D|-0-0-3h4-3-0-0-0-3h4-3h4--|
A|--------------------------| 
E|--------------------------| 


  Riff A [2]
e|---------------|-----------------|
B|---------------|-----------------|
G|---------------|-----------------| 
D|-2-2-2---2-----|-2-2-2---2-------|
A|-0-0-3h4-3-3-5-|-0-0-3h4-3-6-5-3-|
E|-----------1-3-|-----------------|

  Final
e|---------------|-------|
B|---------------|-------|
G|---------------|-------|
D|-2-2-2---2-----|--2-2--|
A|-0-0-3h4-3-3-5-|--0-0--|
E|-----------1-3-|-------|

Fuente original ATAME [www.atame.org]
Colaborador original: Lucas L. Lotierzo [l_lotierzo@hotmail.com]

Fuente: tusacordes.com