a b c d e f g h i j k l m n o p q r s t u v w x y z 0-9

Fantasma

Los Piojos

			
Afinación en Mi

El Bajo empieza cuando termina la primera estrofa.

Riff 1
1|--5--5--5-3-5-3-5--5-3-5-3-5-3--|
2|--------------------------------|
3|--------------------------------|
4|--------------------------------|

Riff 2
1|--------------------------------|
2|--5--5--5-3-5-3-5--5-3-5-3-5-3--|
3|--------------------------------|
4|--------------------------------|

Riff 3
1|--5-5-5-5-1-1-3-3---------------|
2|--------------------------------|
3|--------------------------------|
4|--------------------------------|

Riff Estribillo
1|-1-1--1-1--1-1--1-1--5-5--5-5--5-5--5-5----------------------3-3--3-3--3-3--3-3
2|-----------------------------------------3-3--3-3--3-3--3-3--------------------
3|-------------------------------------------------------------------------------
4|-------------------------------------------------------------------------------


Voy cruzando las paredes de tu casa          
Yo se bien lo que pensas, lo que te pasa       [Sin Bajo]
Vos creíste ver mi sombra en el espejo        /
Vengo para amarte desde un mundo viejo       /

    [Comienza acá con el Riff 1] [2 veces]

Tan despacio estas sacándote la ropa             [Riff 1]
La tristeza esta cambiándose de copa             [Riff 1]
Ya no llamas ni a ese cura ni a esa bruja arpía  [Riff 2]
Porque en esta casa siempre, serás mía           [Riff 1]

Yo se lo que paso
Por eso estoy acá         [Riff estribillo]
Solo un fantasma soy

Me emborracho con la esencia de tus vinos    [Riff 1]
Y comparto tus cigarros asesinos             [Riff 1]
Bailo cuando estas bailando entre la gente   [Riff 2]
El mundo es tu mundo y solo esta en tu mente [Riff 1]

Yo se lo que paso
Por eso estoy acá         [Riff estribillo]
Solo un fantasma soy

    [Acá hace el Riff 1] [2 veces]

Che, che, decime porque         
Con un fantasma solo lo haces     [Riff 3]
Che, che, decime porque          /
Con un fantasma solo lo haces   /
___________________________________________________________________
Aca va la armónica.
Esta dividida en dos partes para el Bajo, en la primera parte el
Bajo hace el Riff 2 [2 veces] y el Riff 1 [2 veces] respectivamente
En la segunda parte el Bajo toca una ves el Riff del estribillo y
termina la armónica junto con el Bajo. [las dos partes van seguidas,
el Bajo no para en ningún momento hasta que la armónica termine].
___________________________________________________________________

    [Acá hace el Riff 1] [2 veces]

Che, che, decime porque         
Con un fantasma solo lo haces     [Riff 3]
Che, che, decime por que         /
Estamos juntos hoy otra vez     /

Yo soy el espíritu que ronda    
en tu casa                        [Riff 3]
Yo se lo que pensas              /
y lo que te pasa                /

Che, che, decime porque         
Con un fantasma solo lo haces     [Riff 3 hasta que termina el tema]
Che, che, decime porque          /
Con un fantasma solo lo haces   /

Leonardo, aguante Guns N Roses
Si algo esta mal mandame un mail a l_cismondi@hotmail.com
Gracias

Fuente original ATAME [www.atame.org]
Colaborador original: Leonardo [l_cismondi@hotmail.com]

Fuente: tusacordes.com