a b c d e f g h i j k l m n o p q r s t u v w x y z 0-9

El Farolito

Los Piojos

			
Intro, Verso y Coro uoh bamba uoh...:
G|----------------------------|
D|------2-5-------------------|
A|-3--3-----3------4---7---5--|
E|------------5--5---5---5----|

Pre-Verso Nº2:
G|---------------|
D|---2-5---------|
A|-3-------4-7-1-|
E|-------5-------|

Verso Nº2 dame un poquito...
G|---------------------------------|x3
D|---------------------------------|
A|-3-3-3---------1x7/x--1x7/x--|
E|-------555-55--------------------|

 |---------------------------------|x1
 |---------------------------------|
 |-------33333--1x7/x--1x7/x---|
 |-55555---------------------------|

Escuchá la canción para saber los ritmos

Fuente original ATAME [www.atame.org]
Colaborador original: Sebastián Vidondo [rojoamargodelsiglo@yahoo.com.ar]

Fuente: tusacordes.com