a b c d e f g h i j k l m n o p q r s t u v w x y z 0-9

El Balneario De Los Doctores Crotos

Los Piojos

			
Los saque el otro día porqe no encontraba la tabla tura y lo comparto. cualquier duda..

minuto 0:14

Esto se repite hasta el minuto  1:35

|------------------------------------]
|------------------------------------|
|-7-7---5-5--------------------------|
|-----5------------------------------]

Minuto 1:35


|----------------------------------|
|----------------------------------|
|-3-6-5-3-5-6-5-3-6-5--------------|X4
|----------------------5-----------|


minuto 1:49

|------------------------------------]
|------------------------------------|
|-7-7---5-5--------------------------|
|-----5------------------------------]

Fuente: Tusacordes