a b c d e f g h i j k l m n o p q r s t u v w x y z 0-9

Dificil

Los Piojos

			
Intro:

      E/C#                E

Mi ---0---------0---------0--------0------------------
Si -----0---------0---------0--------0----------------
Sol---------1---------1---------1--------1------------
Re -------2---------2---------2--------2--------------
La ---4---------4---------2--------2------------------
Mi ---------------------------------------------------

     E/A#                A          Amaj7

Mi --0--------0---------0-----------0---------------------
Si ----0--------0----------2----------2-------------------
Sol--------1--------1-----------2---------1---------------
Re ------2--------2-----------2---------2-----------------
La --1--------1---------0-----------0---------------------
Mi -------------------------------------------------------


Los versos son con base en estos arpegios
Sino pueden hacer los acordes

 E/C#
El heredero al trono ruso
 E
tiene hemofilia Rasputín,
 E/A#
aparece para curarlo
 A
un gran pez.
 E/C#
Y plaza Constitución
 E
peleando los puestos de pie.
 E/A#
Apago la televisión
 A                  S/acorde
adivina en que pienso.

Primer solo

e|-------------------------------------------------|
B|-------------------------------------------------|
G|-------------------------------------------------|
D|----9h11~----------------------------------------|
A|-------------------------------------------------|
E|-------------------------------------------------|

   E
e|-------------------------------------------------|
B|-------------------------------------------------|
G|-------------------------------------------------|
D|---9---------------------------------------------|
A|--------9h7-9ba7~-----7s0------------------------|
E|-------------------------------------------------|

  E/A#
e|-------------------------------------------------|
B|--------------------------12---12h14h12---12-----|
G|------------------11h13--------------------------|
D|----9h11~---14-----------------------------------|
A|-------------------------------------------------|
E|-------------------------------------------------|

   A                     Amaj7
e|-------------------------------------------------|
B|-------------------------------------------------|
G|---13--11s9--------------------------------------|
D|--------------11---9-----------------------------|
A|-----------------------11---9s7s0----------------|
E|-------------------------------------------------|

   vibrato>>>                 ~
   Estiradas>>                b
   Estirar y bajar>>>         ba
   Slide>>>                   s                
   Sonidos armónicos>>>       <>
   Ligados ascendentes>       h
   Ligados descendentes>      p

E/C#                        E
Es tan difícil olvidar tu sensación
 E/A#                        A
como tu piel, nena no hay como tu olor
 E/C#                        E
es tan difícil, todo de nuevo a empezar
 E/A#                        A
solo te pido nena otra oportunidad.

 E/C#                        E
Y voy besando tu recuerdo en el dolor
 E/A#                        A
Y vas buscando una sonrisa alrededor
 E/C#                        E
nada tiene sentido nada para mi? no,
 E/A#                         A
No me interesa nena...si no estás aquí


Estribillo
                  E  G#m - A     B7          E  G#m - A
Y camino en el dolor.. Anestesiado y sin razón
B7                  E  G#m - A     B7          E  G#m - A   B7
y hoy camino en el dolor anestesiado y sin razón..


Segundo solo

e|-------------------------------------------------|
B|-------------------------------------------------|
G|-------------------------------------------------|
D|----9h11~----------------------------------------|
A|-------------------------------------------------|
E|-------------------------------------------------|

   E
e|-------------------------------------------------|
B|-------------------------------------------------|
G|-------------------------------------------------|
D|---9---------------------------------------------|
A|--------9h7-9ba7~-----7s0------------------------|
E|-------------------------------------------------|


  E/A#
e|-------------------------------------------------|
B|--------------------------12---12h14h12---12-----|
G|------------------11h13--------------------------|
D|----9h11~---14-----------------------------------|
A|-------------------------------------------------|
E|-------------------------------------------------|

   A                     Amaj7
e|--------------------------------------------------|
B|--------------------------------------------------|
G|---13--11s9-------------------------------------9-|
D|--------------11---9----------------------9--11---|
A|--------------------------------7--9--11----------|
E|-------------------------7--10--------------------|
                                                         |-esto es bien silencioso-|

Verso: E/C#-E-E/A#-A


Es tan difícil olvidar tu sensación
estoy llorando como un chico en un rincón
desesperado quiero abrazarte otra vez,
quiero contarte todo lo que habrá después...

Puente: Mismos Acordes pero con la banda

Nada para hacer.. solo
nada para hacer.. solo
nada para hacer?
si no estás, si no estás acá
Nada para hacer.. solo
nada para hacer.. solo
nada para hacer..
si no estás....

Estribillo

Y camino en el dolor...
anestesiado y sin razón
y hoy camino en el dolor
anestesiado y sin razón..


Puente 2: Arpegio- Sin batería

Una ilusión se necesita siempre
una ilusión.
Una pasión se necesita siempre
una pasión.


?Gran Solo?

Esto es solo el comienzo del solo, está en la pentatónica de C#m, la base es C#m-G#-F#-A.

  C#m
e|-------------------------------------------------------|
B|-------------------------------------------------------|
G|-------------------------------------------------------|
D|----9h11~----------------------------------------------|
A|-------------------------------------------------------|
E|-------------------------------------------------------|

 G#
e|-------------------------------------------------------|
B|-------------------------------------------------------|
G|----9------11b-11b~------------------------------------|
D|-------11----------------------------------------------|
A|-------------------------------------------------------|
E|-------------------------------------------------------|

  F#
e|-9-----------------------------------------------------|
B|----12p9-----------------------------------------------|
G|-----------11ba11p9------------------------------------|
D|---------------------11~-------------------------------|
A|-------------------------------------------------------|
E|-------------------------------------------------------|

   A
e|-----------------------------------------12----12-14b~-|
B|-----------------------------12----12h14----14---------|
G|----------------9----9h11s13----13---------------------|
D|------9----9h11---11-----------------------------------|
A|-9h11---11---------------------------------------------|
E|-------------------------------------------------------|

El resto es en la misma escala y con esas notas improvisen.

Final:

Nada para hacer.. solo,
nada para hacer.. solo.
Nada para hacer
si no estás, si no estás, acá.
Nada para hacer

Fuente: tusacordes.com